999
NT  : - 1800
  0
SECTION
  2
HEADER
  9
$ACADVER
  1
AC1015
  9
$DWGCODEPAGE
  3
ANSI_1252
  9
$INSBASE
 10
0.0
 20
0.0
 30
0.0
  9
$EXTMIN
 10
-492.75232443
 20
-366.56481149
 30
0.0
  9
$EXTMAX
 10
866.90432793
 20
390.78518851
 30
0.0
  9
$LIMMIN
 10
-492.75232443
 20
-366.56481149
  9
$LIMMAX
 10
866.90432793
 20
390.78518851
  9
$FILLMODE
 70
     1
  9
$QTEXTMODE
 70
     0
  9
$LTSCALE
 40
1.0
  9
$ATTMODE
 70
     1
  9
$TEXTSTYLE
  7
Standard
  9
$LUNITS
 70
     2
  9
$LUPREC
 70
     4
  9
$AUNITS
 70
     0
  9
$AUPREC
 70
     0
  9
$ANGBASE
 50
0.0
  9
$ANGDIR
 70
     0
  9
$HANDSEED
  5
878
  9
$TILEMODE
 70
     1
  9
$VISRETAIN
 70
     0
  9
$MEASUREMENT
 70
     1
  0
ENDSEC
  0
SECTION
  2
CLASSES
  0
ENDSEC
  0
SECTION
  2
TABLES
  0
TABLE
  2
VPORT
  5
1
100
AcDbSymbolTable
 70
     1
  0
VPORT
  5
2
100
AcDbSymbolTableRecord
100
AcDbViewportTableRecord
  2
*Active
 70
     0
 10
0.0
 20
0.0
 11
1.0
 21
1.0
 12
187.07600175
 22
12.11018851
 13
0.0
 23
0.0
 14
1.0
 24
1.0
 15
0.0
 25
0.0
 16
0.0
 26
0.0
 36
1.0
 17
0.0
 27
0.0
 37
0.0
 40
757.350000000
 41
1.795281775
 42
50.0
 43
0.0
 44
0.0
 50
0.0
 51
0.0
 71
     0
 72
   100
 73
     1
 74
     1
 75
     0
 76
     0
 77
     0
 78
     0
  0
ENDTAB
  0
TABLE
  2
LTYPE
  5
3
100
AcDbSymbolTable
 70
    21
  0
LTYPE
  5
4
100
AcDbSymbolTableRecord
100
AcDbLinetypeTableRecord
  2
ByBlock
 70
    64
  3

 72
    65
 73
     0
 40
0.0
  0
LTYPE
  5
5
100
AcDbSymbolTableRecord
100
AcDbLinetypeTableRecord
  2
ByLayer
 70
    64
  3

 72
    65
 73
     0
 40
0.0
  0
LTYPE
  5
6
100
AcDbSymbolTableRecord
100
AcDbLinetypeTableRecord
  2
CONTINUOUS
 70
    64
  3
Solid line
 72
    65
 73
     0
 40
0.0
  0
LTYPE
  5
7
100
AcDbSymbolTableRecord
100
AcDbLinetypeTableRecord
  2
DOT
 70
    64
  3
..............
 72
    65
 73
     2
 40
2.000
 49
0.500
 74
     0
 49
-1.500
 74
     0
  0
LTYPE
  5
8
100
AcDbSymbolTableRecord
100
AcDbLinetypeTableRecord
  2
HIDDEN
 70
    64
  3
-- -- -- -- --
 72
    65
 73
     2
 40
7.000
 49
4.000
 74
     0
 49
-3.000
 74
     0
  0
LTYPE
  5
9
100
AcDbSymbolTableRecord
100
AcDbLinetypeTableRecord
  2
DASHDOT
 70
    64
  3
--.--.--.--.--
 72
    65
 73
     4
 40
8.500
 49
4.000
 74
     0
 49
-2.000
 74
     0
 49
0.500
 74
     0
 49
-2.000
 74
     0
  0
LTYPE
  5
A
100
AcDbSymbolTableRecord
100
AcDbLinetypeTableRecord
  2
STRICHPUNKT2
 70
    64
  3
--.--.--.--.--
 72
    65
 73
     4
 40
18.500
 49
10.000
 74
     0
 49
-4.000
 74
     0
 49
0.500
 74
     0
 49
-4.000
 74
     0
  0
LTYPE
  5
B
100
AcDbSymbolTableRecord
100
AcDbLinetypeTableRecord
  2
STRICHPUNKT3
 70
    64
  3
--.--.--.--.--
 72
    65
 73
     4
 40
35.500
 49
25.000
 74
     0
 49
-5.000
 74
     0
 49
0.500
 74
     0
 49
-5.000
 74
     0
  0
LTYPE
  5
13F
100
AcDbSymbolTableRecord
100
AcDbLinetypeTableRecord
  2
PHANTOM
 70
    64
  3
--..--..--..--
 72
    65
 73
     6
 40
23.000
 49
10.000
 74
     0
 49
-4.000
 74
     0
 49
0.500
 74
     0
 49
-4.000
 74
     0
 49
0.500
 74
     0
 49
-4.000
 74
     0
  0
LTYPE
  5
140
100
AcDbSymbolTableRecord
100
AcDbLinetypeTableRecord
  2
PHANTOM2
 70
    64
  3
--..--..--..--
 72
    65
 73
     6
 40
33.000
 49
20.000
 74
     0
 49
-4.000
 74
     0
 49
0.500
 74
     0
 49
-4.000
 74
     0
 49
0.500
 74
     0
 49
-4.000
 74
     0
  0
LTYPE
  5
141
100
AcDbSymbolTableRecord
100
AcDbLinetypeTableRecord
  2
PHANTOM3
 70
    64
  3
--..--..--..--
 72
    65
 73
     6
 40
50.000
 49
37.000
 74
     0
 49
-4.000
 74
     0
 49
0.500
 74
     0
 49
-4.000
 74
     0
 49
0.500
 74
     0
 49
-4.000
 74
     0
  0
ENDTAB
  0
TABLE
  2
LAYER
  5
142
100
AcDbSymbolTable
 70
    15
  0
LAYER
  5
143
100
AcDbSymbolTableRecord
100
AcDbLayerTableRecord
  2
0
 70
    64
 62
     7
  6
CONTINUOUS
370
    -3
390
F
  0
LAYER
  5
144
100
AcDbSymbolTableRecord
100
AcDbLayerTableRecord
  2
LE_GREEN
 70
    64
 62
     3
  6
CONTINUOUS
370
    -3
390
F
  0
LAYER
  5
145
100
AcDbSymbolTableRecord
100
AcDbLayerTableRecord
  2
LE_RED
 70
    64
 62
     1
  6
CONTINUOUS
370
    -3
390
F
  0
LAYER
  5
146
100
AcDbSymbolTableRecord
100
AcDbLayerTableRecord
  2
LE_ALL
 70
    64
 62
     7
  6
CONTINUOUS
370
    50
390
F
  0
LAYER
  5
147
100
AcDbSymbolTableRecord
100
AcDbLayerTableRecord
  2
LE_HIDDEN1
 70
    64
 62
     3
  6
HIDDEN
370
    -3
390
F
  0
LAYER
  5
148
100
AcDbSymbolTableRecord
100
AcDbLayerTableRecord
  2
LE_HIDDEN
 70
    64
 62
     7
  6
CONTINUOUS
370
    -3
390
F
  0
LAYER
  5
149
100
AcDbSymbolTableRecord
100
AcDbLayerTableRecord
  2
LE_MIDDLE
 70
    64
 62
     7
  6
CONTINUOUS
370
    -3
390
F
  0
LAYER
  5
14A
100
AcDbSymbolTableRecord
100
AcDbLayerTableRecord
  2
TXT_YELLOW
 70
    64
 62
     2
  6
CONTINUOUS
370
    -3
390
F
  0
LAYER
  5
14B
100
AcDbSymbolTableRecord
100
AcDbLayerTableRecord
  2
TXT_DIM49
 70
    64
 62
     2
  6
CONTINUOUS
370
    -3
390
F
  0
LAYER
  5
14C
100
AcDbSymbolTableRecord
100
AcDbLayerTableRecord
  2
TXT_ALL
 70
    64
 62
     7
  6
CONTINUOUS
370
    -3
390
F
  0
LAYER
  5
14D
100
AcDbSymbolTableRecord
100
AcDbLayerTableRecord
  2
DIM49
 70
    64
 62
     4
  6
CONTINUOUS
370
    -3
390
F
  0
LAYER
  5
14E
100
AcDbSymbolTableRecord
100
AcDbLayerTableRecord
  2
HATCH
 70
    64
 62
     3
  6
CONTINUOUS
370
    -3
390
F
  0
LAYER
  5
14F
100
AcDbSymbolTableRecord
100
AcDbLayerTableRecord
  2
APPLE
 70
    64
 62
     7
  6
CONTINUOUS
370
    -3
390
F
  0
LAYER
  5
150
100
AcDbSymbolTableRecord
100
AcDbLayerTableRecord
  2
3
 70
    64
 62
     7
  6
CONTINUOUS
370
    -3
390
F
  0
LAYER
  5
151
100
AcDbSymbolTableRecord
100
AcDbLayerTableRecord
  2
10
 70
    64
 62
     7
  6
CONTINUOUS
370
    -3
390
F
  0
ENDTAB
  0
TABLE
  2
STYLE
  5
152
100
AcDbSymbolTable
 70
     4
  0
STYLE
  5
153
100
AcDbSymbolTableRecord
100
AcDbTextStyleTableRecord
  2
MONOTXT
 70
     0
 40
0.0
 41
1.000
 50
0.0
 71
     0
 42
1.000
  3
monotxt.shx
  4

  0
STYLE
  5
154
100
AcDbSymbolTableRecord
100
AcDbTextStyleTableRecord
  2
STANDARD
 70
     0
 40
0.0
 41
1.000
 50
0.0
 71
     0
 42
1.000
  3
txt
  4

  0
STYLE
  5
155
100
AcDbSymbolTableRecord
100
AcDbTextStyleTableRecord
  2
ARIAL
 70
     0
 40
0.0
 41
1.000
 50
0.0
 71
     0
 42
1.000
  3
arial.ttf
  4

  0
STYLE
  5
156
100
AcDbSymbolTableRecord
100
AcDbTextStyleTableRecord
  2
ARIAL Narrow
 70
     0
 40
0.0
 41
1.000
 50
0.0
 71
     0
 42
1.000
  3
ArialN.ttf
  4

  0
ENDTAB
  0
TABLE
  2
VIEW
  5
157
100
AcDbSymbolTable
 70
     0
  0
ENDTAB
  0
TABLE
  2
UCS
  5
158
100
AcDbSymbolTable
 70
     0
  0
ENDTAB
  0
TABLE
  2
APPID
  5
159
100
AcDbSymbolTable
 70
     1
  0
APPID
  5
15A
100
AcDbSymbolTableRecord
100
AcDbRegAppTableRecord
  2
ACAD
 70
     0
  0
ENDTAB
  0
TABLE
  2
DIMSTYLE
  5
15B
100
AcDbSymbolTable
100
AcDbDimStyleTable
 70
     0
  0
ENDTAB
  0
TABLE
  2
BLOCK_RECORD
  5
15C
100
AcDbSymbolTable
 70
    52
  0
BLOCK_RECORD
  5
1E
100
AcDbSymbolTableRecord
100
AcDbBlockTableRecord
  2
*Model_Space
  0
BLOCK_RECORD
  5
1A
100
AcDbSymbolTableRecord
100
AcDbBlockTableRecord
  2
*Paper_Space
  0
BLOCK_RECORD
  5
15D
100
AcDbSymbolTableRecord
100
AcDbBlockTableRecord
  2
ZBL2D01_00001
  0
BLOCK_RECORD
  5
15E
100
AcDbSymbolTableRecord
100
AcDbBlockTableRecord
  2
DINA1_FREIGABE_00002
  0
BLOCK_RECORD
  5
15F
100
AcDbSymbolTableRecord
100
AcDbBlockTableRecord
  2
SCHRIFE_00003
  0
BLOCK_RECORD
  5
160
100
AcDbSymbolTableRecord
100
AcDbBlockTableRecord
  2
FLEX_00004
  0
BLOCK_RECORD
  5
161
100
AcDbSymbolTableRecord
100
AcDbBlockTableRecord
  2
TFIELD_00005
  0
BLOCK_RECORD
  5
162
100
AcDbSymbolTableRecord
100
AcDbBlockTableRecord
  2
LOGO_00006
  0
BLOCK_RECORD
  5
163
100
AcDbSymbolTableRecord
100
AcDbBlockTableRecord
  2
LOGO_00007
  0
BLOCK_RECORD
  5
164
100
AcDbSymbolTableRecord
100
AcDbBlockTableRecord
  2
LOGO_00008
  0
BLOCK_RECORD
  5
165
100
AcDbSymbolTableRecord
100
AcDbBlockTableRecord
  2
LOGO_00009
  0
BLOCK_RECORD
  5
166
100
AcDbSymbolTableRecord
100
AcDbBlockTableRecord
  2
ANS3D02_00010
  0
BLOCK_RECORD
  5
167
100
AcDbSymbolTableRecord
100
AcDbBlockTableRecord
  2
FIG3D02_00011
  0
BLOCK_RECORD
  5
168
100
AcDbSymbolTableRecord
100
AcDbBlockTableRecord
  2
DICHTSCHNUR_00012
  0
BLOCK_RECORD
  5
169
100
AcDbSymbolTableRecord
100
AcDbBlockTableRecord
  2
_DICHTSCHNUR_00013
  0
BLOCK_RECORD
  5
16A
100
AcDbSymbolTableRecord
100
AcDbBlockTableRecord
  2
544608699_00014
  0
BLOCK_RECORD
  5
16B
100
AcDbSymbolTableRecord
100
AcDbBlockTableRecord
  2
_544608699_00015
  0
BLOCK_RECORD
  5
16C
100
AcDbSymbolTableRecord
100
AcDbBlockTableRecord
  2
544608699_00016
  0
BLOCK_RECORD
  5
16D
100
AcDbSymbolTableRecord
100
AcDbBlockTableRecord
  2
_544608699_00017
  0
BLOCK_RECORD
  5
16E
100
AcDbSymbolTableRecord
100
AcDbBlockTableRecord
  2
544606891_00018
  0
BLOCK_RECORD
  5
16F
100
AcDbSymbolTableRecord
100
AcDbBlockTableRecord
  2
_544606891_00019
  0
BLOCK_RECORD
  5
170
100
AcDbSymbolTableRecord
100
AcDbBlockTableRecord
  2
544609506_00020
  0
BLOCK_RECORD
  5
171
100
AcDbSymbolTableRecord
100
AcDbBlockTableRecord
  2
_544609506_00021
  0
BLOCK_RECORD
  5
172
100
AcDbSymbolTableRecord
100
AcDbBlockTableRecord
  2
544609506_00022
  0
BLOCK_RECORD
  5
173
100
AcDbSymbolTableRecord
100
AcDbBlockTableRecord
  2
_544609506_00023
  0
BLOCK_RECORD
  5
174
100
AcDbSymbolTableRecord
100
AcDbBlockTableRecord
  2
SOCKELLEISTENHALTER_00024
  0
BLOCK_RECORD
  5
175
100
AcDbSymbolTableRecord
100
AcDbBlockTableRecord
  2
_SOCKELLEISTENHALTER_00025
  0
BLOCK_RECORD
  5
176
100
AcDbSymbolTableRecord
100
AcDbBlockTableRecord
  2
544616151_00026
  0
BLOCK_RECORD
  5
177
100
AcDbSymbolTableRecord
100
AcDbBlockTableRecord
  2
_544616151_00027
  0
BLOCK_RECORD
  5
178
100
AcDbSymbolTableRecord
100
AcDbBlockTableRecord
  2
544614108_00028
  0
BLOCK_RECORD
  5
179
100
AcDbSymbolTableRecord
100
AcDbBlockTableRecord
  2
_544614108_00029
  0
BLOCK_RECORD
  5
17A
100
AcDbSymbolTableRecord
100
AcDbBlockTableRecord
  2
544615594_00030
  0
BLOCK_RECORD
  5
17B
100
AcDbSymbolTableRecord
100
AcDbBlockTableRecord
  2
_544615594_00031
  0
BLOCK_RECORD
  5
17C
100
AcDbSymbolTableRecord
100
AcDbBlockTableRecord
  2
544612208_00032
  0
BLOCK_RECORD
  5
17D
100
AcDbSymbolTableRecord
100
AcDbBlockTableRecord
  2
_544612208_00033
  0
BLOCK_RECORD
  5
17E
100
AcDbSymbolTableRecord
100
AcDbBlockTableRecord
  2
551893631_00034
  0
BLOCK_RECORD
  5
17F
100
AcDbSymbolTableRecord
100
AcDbBlockTableRecord
  2
_551893631_00035
  0
BLOCK_RECORD
  5
180
100
AcDbSymbolTableRecord
100
AcDbBlockTableRecord
  2
524834352_00036
  0
BLOCK_RECORD
  5
181
100
AcDbSymbolTableRecord
100
AcDbBlockTableRecord
  2
_524834352_00037
  0
BLOCK_RECORD
  5
182
100
AcDbSymbolTableRecord
100
AcDbBlockTableRecord
  2
524834525_00038
  0
BLOCK_RECORD
  5
183
100
AcDbSymbolTableRecord
100
AcDbBlockTableRecord
  2
_524834525_00039
  0
BLOCK_RECORD
  5
184
100
AcDbSymbolTableRecord
100
AcDbBlockTableRecord
  2
524834525_00040
  0
BLOCK_RECORD
  5
185
100
AcDbSymbolTableRecord
100
AcDbBlockTableRecord
  2
_524834525_00041
  0
BLOCK_RECORD
  5
186
100
AcDbSymbolTableRecord
100
AcDbBlockTableRecord
  2
524834870_00042
  0
BLOCK_RECORD
  5
187
100
AcDbSymbolTableRecord
100
AcDbBlockTableRecord
  2
_524834870_00043
  0
BLOCK_RECORD
  5
188
100
AcDbSymbolTableRecord
100
AcDbBlockTableRecord
  2
524834870_00044
  0
BLOCK_RECORD
  5
189
100
AcDbSymbolTableRecord
100
AcDbBlockTableRecord
  2
_524834870_00045
  0
BLOCK_RECORD
  5
18A
100
AcDbSymbolTableRecord
100
AcDbBlockTableRecord
  2
Teil_00046
  0
BLOCK_RECORD
  5
18B
100
AcDbSymbolTableRecord
100
AcDbBlockTableRecord
  2
_Teil_00047
  0
BLOCK_RECORD
  5
18C
100
AcDbSymbolTableRecord
100
AcDbBlockTableRecord
  2
Teil_00048
  0
BLOCK_RECORD
  5
18D
100
AcDbSymbolTableRecord
100
AcDbBlockTableRecord
  2
_Teil_00049
  0
BLOCK_RECORD
  5
18E
100
AcDbSymbolTableRecord
100
AcDbBlockTableRecord
  2
FIG2D02_00050
  0
ENDTAB
  0
ENDSEC
  0
SECTION
  2
BLOCKS
  0
BLOCK
  5
18F
100
AcDbEntity
  8
0
100
AcDbBlockBegin
  2
*Model_Space
 70
     0
 10
0.0
 20
0.0
 30
0.0
  3
*Model_Space
  1

  0
ENDBLK
  5
190
100
AcDbEntity
  8
0
100
AcDbBlockEnd
  0
BLOCK
  5
191
100
AcDbEntity
100
AcDbBlockBegin
 67
     1
  8
0
  2
*Paper_Space
 70
     0
 10
0.0
 20
0.0
 30
0.0
  3
*Paper_Space
  1

  0
ENDBLK
  5
192
100
AcDbEntity
100
AcDbBlockEnd
 67
     1
  8
0
  0
BLOCK
  5
193
100
AcDbEntity
  8
0
100
AcDbBlockBegin
  2
ZBL2D01_00001
 70
    64
 10
0.0
 20
0.0
 30
0.0
  3
ZBL2D01_00001
  0
INSERT
  5
194
100
AcDbEntity
  8
0
100
AcDbBlockReference
  2
DINA1_FREIGABE_00002
 10
479.41807503
 20
4.86619799
 30
0.0
  0
ENDBLK
  5
195
100
AcDbEntity
  8
0
100
AcDbBlockEnd
  0
BLOCK
  5
196
100
AcDbEntity
  8
0
100
AcDbBlockBegin
  2
DINA1_FREIGABE_00002
 70
    64
 10
479.41807503
 20
4.86619799
 30
0.0
  3
DINA1_FREIGABE_00002
  0
LINE
  5
197
100
AcDbEntity
  8
LE_ALL
100
AcDbLine
 62
     4
 10
479.41807503
 20
4.86619799
 30
0.0
 11
484.41807503
 21
4.86619799
 31
0.0
  0
LINE
  5
198
100
AcDbEntity
  8
LE_ALL
100
AcDbLine
 62
     4
 10
-356.58192497
 20
-143.63380201
 30
0.0
 11
-351.58192497
 21
-143.63380201
 31
0.0
  0
LINE
  5
199
100
AcDbEntity
  8
LE_ALL
100
AcDbLine
 62
     4
 10
-356.58192497
 20
4.86619799
 30
0.0
 11
-336.58192497
 21
4.86619799
 31
0.0
  0
POLYLINE
  5
19A
100
AcDbEntity
  8
0
100
AcDb2dPolyline
 66
     1
  0
VERTEX
  5
19B
100
AcDbEntity
  8
0
100
AcDbVertex
100
AcDb2dVertex
 10
479.41807503
 20
-287.13380201
 30
0.0
  0
VERTEX
  5
19C
100
AcDbEntity
  8
0
100
AcDbVertex
100
AcDb2dVertex
 10
479.41807503
 20
296.86619799
 30
0.0
  0
VERTEX
  5
19D
100
AcDbEntity
  8
0
100
AcDbVertex
100
AcDb2dVertex
 10
-336.58192497
 20
296.86619799
 30
0.0
  0
SEQEND
  5
19E
100
AcDbEntity
  8
0
  0
POLYLINE
  5
19F
100
AcDbEntity
  8
LE_ALL
100
AcDb2dPolyline
 62
     4
 66
     1
 70
     1
  0
VERTEX
  5
1A0
100
AcDbEntity
  8
LE_ALL
100
AcDbVertex
100
AcDb2dVertex
 10
-356.58192497
 20
-292.13380201
 30
0.0
  0
VERTEX
  5
1A1
100
AcDbEntity
  8
LE_ALL
100
AcDbVertex
100
AcDb2dVertex
 10
484.41807503
 20
-292.13380201
 30
0.0
  0
VERTEX
  5
1A2
100
AcDbEntity
  8
LE_ALL
100
AcDbVertex
100
AcDb2dVertex
 10
484.41807503
 20
301.86619799
 30
0.0
  0
VERTEX
  5
1A3
100
AcDbEntity
  8
LE_ALL
100
AcDbVertex
100
AcDb2dVertex
 10
-356.58192497
 20
301.86619799
 30
0.0
  0
SEQEND
  5
1A4
100
AcDbEntity
  8
LE_ALL
  0
LINE
  5
1A5
100
AcDbEntity
  8
LE_ALL
100
AcDbLine
 62
     4
 10
294.41807503
 20
-287.13380201
 30
0.0
 11
294.41807503
 21
-292.13380201
 31
0.0
  0
LINE
  5
1A6
100
AcDbEntity
  8
LE_ALL
100
AcDbLine
 62
     4
 10
294.41807503
 20
296.86619799
 30
0.0
 11
294.41807503
 21
301.86619799
 31
0.0
  0
LINE
  5
1A7
100
AcDbEntity
  8
LE_ALL
100
AcDbLine
 62
     4
 10
-146.58192497
 20
-287.13380201
 30
0.0
 11
-146.58192497
 21
-292.13380201
 31
0.0
  0
LINE
  5
1A8
100
AcDbEntity
  8
LE_ALL
100
AcDbLine
 62
     4
 10
-146.58192497
 20
296.86619799
 30
0.0
 11
-146.58192497
 21
301.86619799
 31
0.0
  0
TEXT
  5
1A9
100
AcDbEntity
  8
TXT_ALL
100
AcDbText
 62
     4
 10
483.41807503
 20
-291.13380201
 30
0.0
 40
2.50000000
  1

  7
MONOTXT
 41
0.812
 50
90.000207410
 51
0.0
100
AcDbText
  0
POLYLINE
  5
1AA
100
AcDbEntity
  8
LE_ALL
100
AcDb2dPolyline
 66
     1
  0
VERTEX
  5
1AB
100
AcDbEntity
  8
LE_ALL
100
AcDbVertex
100
AcDb2dVertex
 10
479.41807503
 20
-287.13380201
 30
0.0
  0
VERTEX
  5
1AC
100
AcDbEntity
  8
LE_ALL
100
AcDbVertex
100
AcDb2dVertex
 10
-336.58192497
 20
-287.13380201
 30
0.0
  0
VERTEX
  5
1AD
100
AcDbEntity
  8
LE_ALL
100
AcDbVertex
100
AcDb2dVertex
 10
-336.58192497
 20
296.86619799
 30
0.0
  0
SEQEND
  5
1AE
100
AcDbEntity
  8
LE_ALL
  0
POINT
  5
1AF
100
AcDbEntity
  8
0
100
AcDbPoint
 10
78.91807503
 20
32.49619799
 30
0.0
  0
INSERT
  5
1B0
100
AcDbEntity
  8
0
100
AcDbBlockReference
  2
SCHRIFE_00003
 10
294.41807503
 20
-240.06438817
 30
0.0
  0
ENDBLK
  5
1B1
100
AcDbEntity
  8
0
100
AcDbBlockEnd
  0
BLOCK
  5
1B2
100
AcDbEntity
  8
0
100
AcDbBlockBegin
  2
SCHRIFE_00003
 70
    64
 10
294.41807503
 20
-240.06438817
 30
0.0
  3
SCHRIFE_00003
  0
LINE
  5
1B3
100
AcDbEntity
  8
LE_ALL
100
AcDbLine
 10
294.41807503
 20
-240.06438817
 30
0.0
 11
366.41807503
 21
-240.06438817
 31
0.0
  0
LINE
  5
1B4
100
AcDbEntity
  8
LE_ALL
100
AcDbLine
 10
366.41807503
 20
-215.51303988
 30
0.0
 11
366.41807503
 21
-248.06438817
 31
0.0
  0
POLYLINE
  5
1B5
100
AcDbEntity
  8
LE_ALL
100
AcDb2dPolyline
 66
     1
 70
     1
  0
VERTEX
  5
1B6
100
AcDbEntity
  8
LE_ALL
100
AcDbVertex
100
AcDb2dVertex
 10
479.41807503
 20
-215.51303988
 30
0.0
  0
VERTEX
  5
1B7
100
AcDbEntity
  8
LE_ALL
100
AcDbVertex
100
AcDb2dVertex
 10
294.41807503
 20
-215.51303988
 30
0.0
  0
VERTEX
  5
1B8
100
AcDbEntity
  8
LE_ALL
100
AcDbVertex
100
AcDb2dVertex
 10
294.41807503
 20
-287.13380201
 30
0.0
  0
VERTEX
  5
1B9
100
AcDbEntity
  8
LE_ALL
100
AcDbVertex
100
AcDb2dVertex
 10
479.41807503
 20
-287.13380201
 30
0.0
  0
SEQEND
  5
1BA
100
AcDbEntity
  8
LE_ALL
  0
LINE
  5
1BB
100
AcDbEntity
  8
LE_ALL
100
AcDbLine
 10
340.36337037
 20
-287.13380201
 30
0.0
 11
340.36337037
 21
-260.92872445
 31
0.0
  0
LINE
  5
1BC
100
AcDbEntity
  8
LE_ALL
100
AcDbLine
 10
399.28499739
 20
-287.13380201
 30
0.0
 11
399.28499739
 21
-215.51303988
 31
0.0
  0
LINE
  5
1BD
100
AcDbEntity
  8
LE_ALL
100
AcDbLine
 10
340.36337037
 20
-271.40731003
 30
0.0
 11
465.30933772
 21
-271.40731003
 31
0.0
  0
LINE
  5
1BE
100
AcDbEntity
  8
LE_ALL
100
AcDbLine
 10
417.95977750
 20
-287.13380201
 30
0.0
 11
417.95977750
 21
-260.92872445
 31
0.0
  0
LINE
  5
1BF
100
AcDbEntity
  8
LE_ALL
100
AcDbLine
 10
465.30933772
 20
-287.13380183
 30
0.0
 11
465.30933772
 21
-266.16801724
 31
0.0
  0
LINE
  5
1C0
100
AcDbEntity
  8
LE_ALL
100
AcDbLine
 10
441.63455761
 20
-276.64660283
 30
0.0
 11
441.63455761
 21
-266.16801724
 31
0.0
  0
LINE
  5
1C1
100
AcDbEntity
  8
LE_ALL
100
AcDbLine
 10
340.36337037
 20
-276.64660283
 30
0.0
 11
479.41807503
 21
-276.64660283
 31
0.0
  0
LINE
  5
1C2
100
AcDbEntity
  8
LE_ALL
100
AcDbLine
 10
340.36337037
 20
-281.88589562
 30
0.0
 11
399.28499739
 21
-281.88589562
 31
0.0
  0
LINE
  5
1C3
100
AcDbEntity
  8
LE_ALL
100
AcDbLine
 10
347.50786054
 20
-287.13380201
 30
0.0
 11
347.50786054
 21
-260.92872445
 31
0.0
  0
LINE
  5
1C4
100
AcDbEntity
  8
LE_ALL
100
AcDbLine
 10
389.37751378
 20
-287.13380201
 30
0.0
 11
389.37751378
 21
-260.92872445
 31
0.0
  0
LINE
  5
1C5
100
AcDbEntity
  8
LE_ALL
100
AcDbLine
 10
379.47003016
 20
-287.13380201
 30
0.0
 11
379.47003016
 21
-260.92872445
 31
0.0
  0
LINE
  5
1C6
100
AcDbEntity
  8
LE_ALL
100
AcDbLine
 10
294.41807503
 20
-248.06438817
 30
0.0
 11
479.41807539
 21
-248.06438817
 31
0.0
  0
LINE
  5
1C7
100
AcDbEntity
  8
LE_ALL
100
AcDbLine
 10
294.41807503
 20
-260.92872445
 30
0.0
 11
479.41807503
 21
-260.92872445
 31
0.0
  0
LINE
  5
1C8
100
AcDbEntity
  8
LE_ALL
100
AcDbLine
 10
340.36337037
 20
-266.16801724
 30
0.0
 11
479.41807503
 21
-266.16801724
 31
0.0
  0
TEXT
  5
1C9
100
AcDbEntity
  8
TXT_ALL
100
AcDbText
 10
296.03721276
 20
-263.71001342
 30
0.0
 40
1.58299994
  1
Hersteller:
  7
Arial
 41
1.000
 50
0.0
 51
0.0
100
AcDbText
  0
TEXT
  5
1CA
100
AcDbEntity
  8
TXT_ALL
100
AcDbText
 10
422.78489679
 20
-274.83997399
 30
0.0
 40
2.11100006
  1
29.11.2018
  7
Arial
 41
1.000
 50
0.0
 51
0.0
100
AcDbText
  0
TEXT
  5
1CB
100
AcDbEntity
  8
TXT_ALL
100
AcDbText
 10
401.51628331
 20
-282.73083481
 30
0.0
 40
1.58299994
  1
Zeichnungs-Nr.:
  7
Arial
 41
1.000
 50
0.0
 51
0.0
100
AcDbText
  0
TEXT
  5
1CC
100
AcDbEntity
  8
TXT_ALL
100
AcDbText
 10
401.51628331
 20
-274.53914693
 30
0.0
 40
1.58299994
  1
gezeichnet:
  7
Arial
 41
1.000
 50
0.0
 51
0.0
100
AcDbText
  0
TEXT
  5
1CD
100
AcDbEntity
  8
TXT_ALL
100
AcDbText
 10
422.67773631
 20
-269.33857227
 30
0.0
 40
1.58299994
  1
Datum:
  7
Arial
 41
1.000
 50
0.0
 51
0.0
100
AcDbText
  0
TEXT
  5
1CE
100
AcDbEntity
  8
TXT_ALL
100
AcDbText
 10
445.73814692
 20
-274.83997399
 30
0.0
 40
2.11100006
  1
SPj
  7
Arial
 41
1.000
 50
0.0
 51
0.0
100
AcDbText
  0
TEXT
  5
1CF
100
AcDbEntity
  8
TXT_ALL
100
AcDbText
 10
445.52121545
 20
-269.33857227
 30
0.0
 40
1.58299994
  1
Name:
  7
Arial
 41
1.000
 50
0.0
 51
0.0
100
AcDbText
  0
TEXT
  5
1D0
100
AcDbEntity
  8
TXT_ALL
100
AcDbText
 10
341.16575826
 20
-285.16104013
 30
0.0
 40
1.58299994
  1
Index
  7
Arial
 41
1.000
 50
0.0
 51
0.0
100
AcDbText
  0
TEXT
  5
1D1
100
AcDbEntity
  8
TXT_ALL
100
AcDbText
 10
348.97729614
 20
-285.16104013
 30
0.0
 40
1.58299994
  1
Änderung
  7
Arial
 41
1.000
 50
0.0
 51
0.0
100
AcDbText
  0
TEXT
  5
1D2
100
AcDbEntity
  8
TXT_ALL
100
AcDbText
 10
380.93946576
 20
-285.16104013
 30
0.0
 40
1.58299994
  1
Datum
  7
Arial
 41
1.000
 50
0.0
 51
0.0
100
AcDbText
  0
TEXT
  5
1D3
100
AcDbEntity
  8
TXT_ALL
100
AcDbText
 10
390.84694937
 20
-285.16104013
 30
0.0
 40
1.58299994
  1
Name
  7
Arial
 41
1.000
 50
0.0
 51
0.0
100
AcDbText
  0
TEXT
  5
1D4
100
AcDbEntity
  8
TXT_ALL
100
AcDbText
 10
295.94183146
 20
-243.20111176
 30
0.0
 40
2.14299989
  1
Sandmeir - exclusiv Stahlbau GmbH | Nelkenweg 14
  7
Arial
 41
1.000
 50
0.0
 51
0.0
 72
     0
 11
295.94183146
 21
-241.05811188
 31
0.0
100
AcDbText
 73
     3
  0
TEXT
  5
1D5
100
AcDbEntity
  8
TXT_ALL
100
AcDbText
 10
297.93866997
 20
-267.04091550
 30
0.0
 40
2.38100004
  1
Sandmeir - exclusiv
  7
Arial
 41
1.000
 50
0.0
 51
0.0
 72
     0
 11
297.93866997
 21
-264.65991546
 31
0.0
100
AcDbText
 73
     3
  0
TEXT
  5
1D6
100
AcDbEntity
  8
TXT_ALL
100
AcDbText
 10
297.93866997
 20
-271.01007675
 30
0.0
 40
2.38100004
  1
Stahlbau GmbH
  7
Arial
 41
1.000
 50
0.0
 51
0.0
 72
     0
 11
297.93866997
 21
-268.62907671
 31
0.0
100
AcDbText
 73
     3
  0
TEXT
  5
1D7
100
AcDbEntity
  8
TXT_ALL
100
AcDbText
 10
297.93866997
 20
-274.97923800
 30
0.0
 40
2.38100004
  1
Nelkenweg 14
  7
Arial
 41
1.000
 50
0.0
 51
0.0
 72
     0
 11
297.93866997
 21
-272.59823796
 31
0.0
100
AcDbText
 73
     3
  0
TEXT
  5
1D8
100
AcDbEntity
  8
TXT_ALL
100
AcDbText
 10
297.93866997
 20
-278.94839926
 30
0.0
 40
2.38100004
  1
86641 Rain
  7
Arial
 41
1.000
 50
0.0
 51
0.0
 72
     0
 11
297.93866997
 21
-276.56739921
 31
0.0
100
AcDbText
 73
     3
  0
TEXT
  5
1D9
100
AcDbEntity
  8
TXT_ALL
100
AcDbText
 10
296.03721276
 20
-250.84567713
 30
0.0
 40
1.58299994
  1
Produkt:
  7
Arial
 41
1.000
 50
0.0
 51
0.0
100
AcDbText
  0
TEXT
  5
1DA
100
AcDbEntity
  8
TXT_ALL
100
AcDbText
 10
297.93866997
 20
-254.17657921
 30
0.0
 40
2.38100004
  1
balkoFLOOR
  7
Arial
 41
1.000
 50
0.0
 51
0.0
 72
     0
 11
297.93866997
 21
-251.79557917
 31
0.0
100
AcDbText
 73
     3
  0
TEXT
  5
1DB
100
AcDbEntity
  8
TXT_ALL
100
AcDbText
 10
297.93866997
 20
-258.14574047
 30
0.0
 40
2.38100004
  1
2018
  7
Arial
 41
1.000
 50
0.0
 51
0.0
 72
     0
 11
297.93866997
 21
-255.76474042
 31
0.0
100
AcDbText
 73
     3
  0
TEXT
  5
1DC
100
AcDbEntity
  8
TXT_ALL
100
AcDbText
 10
400.90413512
 20
-218.30503605
 30
0.0
 40
1.58299994
  1
Position / Anzahl:
  7
Arial
 41
1.000
 50
0.0
 51
0.0
100
AcDbText
  0
TEXT
  5
1DD
100
AcDbEntity
  8
TXT_ALL
100
AcDbText
 10
401.28499739
 20
-224.26272456
 30
0.0
 40
3.33400011
  1
balkoFLOOR
  7
Arial
 41
1.000
 50
0.0
 51
0.0
 72
     0
 11
401.28499739
 21
-220.92872445
 31
0.0
100
AcDbText
 73
     3
  0
TEXT
  5
1DE
100
AcDbEntity
  8
TXT_ALL
100
AcDbText
 10
401.28499739
 20
-229.51272456
 30
0.0
 40
3.33400011
  1
Klicksystem 2018
  7
Arial
 41
1.000
 50
0.0
 51
0.0
 72
     0
 11
401.28499739
 21
-226.17872445
 31
0.0
100
AcDbText
 73
     3
  0
TEXT
  5
1DF
100
AcDbEntity
  8
TXT_ALL
100
AcDbText
 10
401.28499739
 20
-234.77343177
 30
0.0
 40
3.33400011
  1
Profilschnitte
  7
Arial
 41
1.000
 50
0.0
 51
0.0
 72
     0
 11
401.28499739
 21
-231.43943166
 31
0.0
100
AcDbText
 73
     3
  0
TEXT
  5
1E0
100
AcDbEntity
  8
TXT_ALL
100
AcDbText
 10
467.93055514
 20
-273.05731001
 30
0.0
 40
3.29999995
  1
1 : 1
  7
Arial
 41
1.000
 50
0.0
 51
0.0
 72
     1
 11
472.36370638
 21
-271.40731003
 31
0.0
100
AcDbText
 73
     2
  0
TEXT
  5
1E1
100
AcDbEntity
  8
TXT_ALL
100
AcDbText
 10
419.60568743
 20
-283.80221350
 30
0.0
 40
3.69400001
  1
1025
  7
Arial
 41
1.000
 50
0.0
 51
0.0
100
AcDbText
  0
TEXT
  5
1E2
100
AcDbEntity
  8
TXT_ALL
100
AcDbText
 10
400.11646298
 20
-264.16801724
 30
0.0
 40
1.58299994
  1
.
  7
Arial
 41
1.000
 50
0.0
 51
0.0
100
AcDbText
  0
TEXT
  5
1E3
100
AcDbEntity
  8
TXT_ALL
100
AcDbText
 10
297.96880807
 20
-282.94632350
 30
0.0
 40
2.38100004
  1

  7
MONOTXT
 41
1.000
 50
0.0
 51
0.0
 72
     0
 11
297.96880807
 21
-280.56532346
 31
0.0
100
AcDbText
 73
     3
  0
TEXT
  5
1E4
100
AcDbEntity
  8
TXT_ALL
100
AcDbText
 10
342.09682151
 20
-279.88589562
 30
0.0
 40
1.58299994
  1
a
  7
Arial
 41
1.000
 50
0.0
 51
0.0
100
AcDbText
  0
TEXT
  5
1E5
100
AcDbEntity
  8
TXT_ALL
100
AcDbText
 10
342.09682151
 20
-274.64660283
 30
0.0
 40
1.58299994
  1
b
  7
Arial
 41
1.000
 50
0.0
 51
0.0
100
AcDbText
  0
TEXT
  5
1E6
100
AcDbEntity
  8
TXT_ALL
100
AcDbText
 10
342.09682151
 20
-269.40731003
 30
0.0
 40
1.58299994
  1
c
  7
Arial
 41
1.000
 50
0.0
 51
0.0
100
AcDbText
  0
TEXT
  5
1E7
100
AcDbEntity
  8
TXT_ALL
100
AcDbText
 10
342.09682151
 20
-264.16801724
 30
0.0
 40
1.58299994
  1
d
  7
Arial
 41
1.000
 50
0.0
 51
0.0
100
AcDbText
  0
TEXT
  5
1E8
100
AcDbEntity
  8
TXT_ALL
100
AcDbText
 10
348.94047818
 20
-264.16801724
 30
0.0
 40
1.58299994
  1
xx
  7
Arial
 41
1.000
 50
0.0
 51
0.0
100
AcDbText
  0
TEXT
  5
1E9
100
AcDbEntity
  8
TXT_ALL
100
AcDbText
 10
348.94047818
 20
-269.40731003
 30
0.0
 40
1.58299994
  1
xx
  7
Arial
 41
1.000
 50
0.0
 51
0.0
100
AcDbText
  0
TEXT
  5
1EA
100
AcDbEntity
  8
TXT_ALL
100
AcDbText
 10
348.94047818
 20
-274.64660283
 30
0.0
 40
1.58299994
  1
xx
  7
Arial
 41
1.000
 50
0.0
 51
0.0
100
AcDbText
  0
TEXT
  5
1EB
100
AcDbEntity
  8
TXT_ALL
100
AcDbText
 10
348.94047818
 20
-279.88589562
 30
0.0
 40
1.58299994
  1
xx
  7
Arial
 41
1.000
 50
0.0
 51
0.0
100
AcDbText
  0
TEXT
  5
1EC
100
AcDbEntity
  8
TXT_ALL
100
AcDbText
 10
380.87652848
 20
-279.88589562
 30
0.0
 40
1.58299994
  1
xx
  7
Arial
 41
1.000
 50
0.0
 51
0.0
100
AcDbText
  0
TEXT
  5
1ED
100
AcDbEntity
  8
TXT_ALL
100
AcDbText
 10
380.87652848
 20
-274.64660283
 30
0.0
 40
1.58299994
  1
xx
  7
Arial
 41
1.000
 50
0.0
 51
0.0
100
AcDbText
  0
TEXT
  5
1EE
100
AcDbEntity
  8
TXT_ALL
100
AcDbText
 10
380.87652848
 20
-269.40731003
 30
0.0
 40
1.58299994
  1
xx
  7
Arial
 41
1.000
 50
0.0
 51
0.0
100
AcDbText
  0
TEXT
  5
1EF
100
AcDbEntity
  8
TXT_ALL
100
AcDbText
 10
380.87652848
 20
-264.16801724
 30
0.0
 40
1.58299994
  1
xx
  7
Arial
 41
1.000
 50
0.0
 51
0.0
100
AcDbText
  0
TEXT
  5
1F0
100
AcDbEntity
  8
TXT_ALL
100
AcDbText
 10
390.85974188
 20
-264.16801724
 30
0.0
 40
1.58299994
  1
xx
  7
Arial
 41
1.000
 50
0.0
 51
0.0
100
AcDbText
  0
TEXT
  5
1F1
100
AcDbEntity
  8
TXT_ALL
100
AcDbText
 10
390.85974188
 20
-269.40731003
 30
0.0
 40
1.58299994
  1
xx
  7
Arial
 41
1.000
 50
0.0
 51
0.0
100
AcDbText
  0
TEXT
  5
1F2
100
AcDbEntity
  8
TXT_ALL
100
AcDbText
 10
390.85974188
 20
-274.64660283
 30
0.0
 40
1.58299994
  1
xx
  7
Arial
 41
1.000
 50
0.0
 51
0.0
100
AcDbText
  0
TEXT
  5
1F3
100
AcDbEntity
  8
TXT_ALL
100
AcDbText
 10
390.85974188
 20
-279.88589562
 30
0.0
 40
1.58299994
  1
xx
  7
Arial
 41
1.000
 50
0.0
 51
0.0
100
AcDbText
  0
TEXT
  5
1F4
100
AcDbEntity
  8
TXT_ALL
100
AcDbText
 10
430.89904268
 20
-283.80221350
 30
0.0
 40
3.69400001
  1
 -
  7
Arial
 41
1.000
 50
0.0
 51
0.0
100
AcDbText
  0
TEXT
  5
1F5
100
AcDbEntity
  8
TXT_ALL
100
AcDbText
 10
469.98027949
 20
-283.93821539
 30
0.0
 40
3.69400001
  1

  7
MONOTXT
 41
1.000
 50
0.0
 51
0.0
 72
     2
 11
473.67427949
 21
-283.93821539
 31
0.0
100
AcDbText
  0
TEXT
  5
1F6
100
AcDbEntity
  8
TXT_ALL
100
AcDbText
 10
401.28499739
 20
-240.02343177
 30
0.0
 40
3.33400011
  1
vereinfachte Darstellung
  7
Arial
 41
1.000
 50
0.0
 51
0.0
 72
     0
 11
401.28499739
 21
-236.68943166
 31
0.0
100
AcDbText
 73
     3
  0
TEXT
  5
1F7
100
AcDbEntity
  8
TXT_ALL
100
AcDbText
 10
422.63259585
 20
-264.22559566
 30
0.0
 40
1.58299994
  1
.
  7
Arial
 41
1.000
 50
0.0
 51
0.0
100
AcDbText
  0
TEXT
  5
1F8
100
AcDbEntity
  8
TXT_ALL
100
AcDbText
 10
401.28499739
 20
-245.27343177
 30
0.0
 40
3.33400011
  1
.
  7
Arial
 41
1.000
 50
0.0
 51
0.0
 72
     0
 11
401.28499739
 21
-241.93943166
 31
0.0
100
AcDbText
 73
     3
  0
TEXT
  5
1F9
100
AcDbEntity
  8
TXT_ALL
100
AcDbText
 10
295.59867243
 20
-246.71153414
 30
0.0
 40
2.14299989
  1
86641 Rain | tel. 09090 / 9669 - 0 | www.sandmeir.de
  7
Arial
 41
1.000
 50
0.0
 51
0.0
 72
     0
 11
295.59867243
 21
-244.56853425
 31
0.0
100
AcDbText
 73
     3
  0
TEXT
  5
1FA
100
AcDbEntity
  8
TXT_ALL
100
AcDbText
 10
400.90413512
 20
-250.84567713
 30
0.0
 40
1.58299994
  1
.
  7
Arial
 41
1.000
 50
0.0
 51
0.0
100
AcDbText
  0
TEXT
  5
1FB
100
AcDbEntity
  8
TXT_ALL
100
AcDbText
 10
402.80559234
 20
-254.17657921
 30
0.0
 40
2.38100004
  1

  7
MONOTXT
 41
1.000
 50
0.0
 51
0.0
 72
     0
 11
402.80559234
 21
-251.79557917
 31
0.0
100
AcDbText
 73
     3
  0
TEXT
  5
1FC
100
AcDbEntity
  8
TXT_ALL
100
AcDbText
 10
434.89904268
 20
-283.80221350
 30
0.0
 40
3.69400001
  1
FLO 01 - 01
  7
Arial
 41
1.000
 50
0.0
 51
0.0
100
AcDbText
  0
TEXT
  5
1FD
100
AcDbEntity
  8
TXT_ALL
100
AcDbText
 62
     1
 10
294.25047081
 20
-182.28318750
 30
0.0
 40
5.00000000
  1
Hinweis: Profile in vereinfachter Darstellung
  7
Arial
 41
1.000
 50
0.0
 51
0.0
 72
     0
 11
294.25047081
 21
-177.28318750
 31
0.0
100
AcDbText
 73
     3
  0
TEXT
  5
1FE
100
AcDbEntity
  8
TXT_ALL
100
AcDbText
 62
     2
 10
322.37024141
 20
-192.19650099
 30
0.0
 40
4.00000000
  1
Die tatsächliche Geometrie weicht systembedingt leicht ab
  7
Arial
 41
1.000
 50
0.0
 51
0.0
 72
     0
 11
322.37024141
 21
-188.19650099
 31
0.0
100
AcDbText
 73
     3
  0
INSERT
  5
1FF
100
AcDbEntity
  8
0
100
AcDbBlockReference
  2
FLEX_00004
 10
382.50225455
 20
-218.72071434
 30
0.0
  0
INSERT
  5
200
100
AcDbEntity
  8
0
100
AcDbBlockReference
  2
LOGO_00006
 10
296.77303996
 20
-224.29945086
 30
0.0
  0
ENDBLK
  5
201
100
AcDbEntity
  8
0
100
AcDbBlockEnd
  0
BLOCK
  5
202
100
AcDbEntity
  8
0
100
AcDbBlockBegin
  2
FLEX_00004
 70
    64
 10
382.50225455
 20
-218.72071434
 30
0.0
  3
FLEX_00004
  0
INSERT
  5
203
100
AcDbEntity
  8
0
100
AcDbBlockReference
  2
TFIELD_00005
 10
367.78111108
 20
-246.27071434
 30
0.0
  0
ENDBLK
  5
204
100
AcDbEntity
  8
0
100
AcDbBlockEnd
  0
BLOCK
  5
205
100
AcDbEntity
  8
0
100
AcDbBlockBegin
  2
TFIELD_00005
 70
    64
 10
367.78111108
 20
-246.27071434
 30
0.0
  3
TFIELD_00005
  0
TEXT
  5
206
100
AcDbEntity
  8
TXT_ALL
100
AcDbText
 10
367.78111108
 20
-246.97071433
 30
0.0
 40
1.39999998
  1
gegen unerlaubten Wettbewerb)
  7
Arial
 41
1.000
 50
0.0
 51
0.0
 72
     0
 11
367.78111108
 21
-246.27071434
 31
0.0
100
AcDbText
 73
     2
  0
TEXT
  5
207
100
AcDbEntity
  8
TXT_ALL
100
AcDbText
 10
367.78111108
 20
-244.07071433
 30
0.0
 40
1.39999998
  1
(Urheberrechtsgesetz, Gesetzt
  7
Arial
 41
1.000
 50
0.0
 51
0.0
 72
     0
 11
367.78111108
 21
-243.37071434
 31
0.0
100
AcDbText
 73
     2
  0
TEXT
  5
208
100
AcDbEntity
  8
TXT_ALL
100
AcDbText
 10
367.78111108
 20
-241.17071433
 30
0.0
 40
1.39999998
  1
Objekts verwendet werden!
  7
Arial
 41
1.000
 50
0.0
 51
0.0
 72
     0
 11
367.78111108
 21
-240.47071434
 31
0.0
100
AcDbText
 73
     2
  0
TEXT
  5
209
100
AcDbEntity
  8
TXT_ALL
100
AcDbText
 10
367.78111108
 20
-238.27071433
 30
0.0
 40
1.39999998
  1
Ausführung des dargestellten
  7
Arial
 41
1.000
 50
0.0
 51
0.0
 72
     0
 11
367.78111108
 21
-237.57071434
 31
0.0
100
AcDbText
 73
     2
  0
TEXT
  5
20A
100
AcDbEntity
  8
TXT_ALL
100
AcDbText
 10
367.78111108
 20
-235.37071433
 30
0.0
 40
1.39999998
  1
zugänglich gemacht oder zur
  7
Arial
 41
1.000
 50
0.0
 51
0.0
 72
     0
 11
367.78111108
 21
-234.67071434
 31
0.0
100
AcDbText
 73
     2
  0
TEXT
  5
20B
100
AcDbEntity
  8
TXT_ALL
100
AcDbText
 10
367.78111108
 20
-232.47071433
 30
0.0
 40
1.39999998
  1
Personen, noch Mitbewerber usw.
  7
Arial
 41
1.000
 50
0.0
 51
0.0
 72
     0
 11
367.78111108
 21
-231.77071434
 31
0.0
100
AcDbText
 73
     2
  0
TEXT
  5
20C
100
AcDbEntity
  8
TXT_ALL
100
AcDbText
 10
367.78111108
 20
-229.57071433
 30
0.0
 40
1.39999998
  1
Zustimmung weder an dritten
  7
Arial
 41
1.000
 50
0.0
 51
0.0
 72
     0
 11
367.78111108
 21
-228.87071434
 31
0.0
100
AcDbText
 73
     2
  0
TEXT
  5
20D
100
AcDbEntity
  8
TXT_ALL
100
AcDbText
 10
367.78111108
 20
-226.67071433
 30
0.0
 40
1.39999998
  1
lt. Gesetz ohne unsere schriftliche
  7
Arial
 41
1.000
 50
0.0
 51
0.0
 72
     0
 11
367.78111108
 21
-225.97071434
 31
0.0
100
AcDbText
 73
     2
  0
TEXT
  5
20E
100
AcDbEntity
  8
TXT_ALL
100
AcDbText
 10
367.78111108
 20
-223.77071433
 30
0.0
 40
1.39999998
  1
geistiges Eigentum und dürfen
  7
Arial
 41
1.000
 50
0.0
 51
0.0
 72
     0
 11
367.78111108
 21
-223.07071434
 31
0.0
100
AcDbText
 73
     2
  0
TEXT
  5
20F
100
AcDbEntity
  8
TXT_ALL
100
AcDbText
 10
367.78111108
 20
-220.87071433
 30
0.0
 40
1.39999998
  1
und Skizzen bleiben unser
  7
Arial
 41
1.000
 50
0.0
 51
0.0
 72
     0
 11
367.78111108
 21
-220.17071434
 31
0.0
100
AcDbText
 73
     2
  0
TEXT
  5
210
100
AcDbEntity
  8
TXT_ALL
100
AcDbText
 10
367.78111108
 20
-217.97071433
 30
0.0
 40
1.39999998
  1
Sämtliche Entwürfe, Zeichnungen
  7
Arial
 41
1.000
 50
0.0
 51
0.0
 72
     0
 11
367.78111108
 21
-217.27071434
 31
0.0
100
AcDbText
 73
     2
  0
ENDBLK
  5
211
100
AcDbEntity
  8
0
100
AcDbBlockEnd
  0
BLOCK
  5
212
100
AcDbEntity
  8
0
100
AcDbBlockBegin
  2
LOGO_00006
 70
    64
 10
296.77303996
 20
-224.29945086
 30
0.0
  3
LOGO_00006
  0
TEXT
  5
213
100
AcDbEntity
  8
TXT_ALL
100
AcDbText
 62
    57
 10
296.77303996
 20
-224.29945086
 30
0.0
 40
8.30000019
  1
sandmeir
  7
STANDARD
 41
1.000
 50
0.0
 51
0.0
100
AcDbText
  0
TEXT
  5
214
100
AcDbEntity
  8
TXT_ALL
100
AcDbText
 62
    57
 10
343.87596208
 20
-224.41025795
 30
0.0
 40
5.00000000
  1
GMBH
  7
Arial
 41
1.000
 50
0.0
 51
0.0
100
AcDbText
  0
TEXT
  5
215
100
AcDbEntity
  8
TXT_ALL
100
AcDbText
 62
    57
 10
325.34174113
 20
-237.33730480
 30
0.0
 40
3.59999990
  1
exclusiv stahlbau
  7
Arial
 41
1.000
 50
0.0
 51
0.0
 72
     2
 11
363.19610906
 21
-237.33730480
 31
0.0
100
AcDbText
  0
INSERT
  5
216
100
AcDbEntity
  8
0
100
AcDbBlockReference
  2
LOGO_00007
 10
303.65154662
 20
-228.68557381
 30
0.0
  0
INSERT
  5
217
100
AcDbEntity
  8
0
100
AcDbBlockReference
  2
LOGO_00008
 10
301.70105195
 20
-228.68557381
 30
0.0
  0
INSERT
  5
218
100
AcDbEntity
  8
0
100
AcDbBlockReference
  2
LOGO_00009
 10
302.67629929
 20
-228.68557381
 30
0.0
  0
ENDBLK
  5
219
100
AcDbEntity
  8
0
100
AcDbBlockEnd
  0
BLOCK
  5
21A
100
AcDbEntity
  8
0
100
AcDbBlockBegin
  2
LOGO_00007
 70
    64
 10
303.65154662
 20
-228.68557381
 30
0.0
  3
LOGO_00007
  0
HATCH
  5
21B
100
AcDbEntity
  8
HATCH
100
AcDbHatch
 62
    14
 10
0.0
 20
0.0
 30
0.0
210
0.0
220
0.0
230
1.0
  2
ANSI31
 70
     0
 71
     0
 91
     1
 92
     1
 93
    17
 72
     1
 10
303.65154662
 20
-228.68557381
 11
304.62679396
 21
-228.68557381
 72
     1
 10
304.62679396
 20
-228.68557381
 11
304.62679396
 21
-237.33730480
 72
     1
 10
304.62679396
 20
-237.33730480
 11
303.65154662
 21
-237.33730480
 72
     1
 10
303.65154662
 20
-237.33730480
 11
303.65154662
 21
-228.68557381
 72
     1
 10
298.88093760
 20
-228.68557381
 11
299.85618494
 21
-228.68557381
 72
     1
 10
299.85618494
 20
-228.68557381
 11
299.85618494
 21
-237.33730480
 72
     1
 10
299.85618494
 20
-237.33730480
 11
298.88093760
 21
-237.33730480
 72
     1
 10
298.88093760
 20
-237.33730480
 11
298.88093760
 21
-228.68557381
 72
     2
 10
323.02141883
 20
-230.34166388
 40
3.54707628
 50
152.16747154
 51
298.44992004
 73
     1
 72
     1
 10
319.88468234
 20
-228.68557381
 11
306.48509455
 21
-228.68557381
 72
     1
 10
306.48509455
 20
-228.68557381
 11
306.48509455
 21
-237.33730480
 72
     1
 10
306.48509455
 20
-237.33730480
 11
324.71121205
 21
-237.33730480
 72
     1
 10
324.71121205
 20
-237.33730480
 11
324.71121205
 21
-233.46037339
 72
     1
 10
296.97551318
 20
-228.68557381
 11
297.95076052
 21
-228.68557381
 72
     1
 10
297.95076052
 20
-228.68557381
 11
297.95076052
 21
-237.33730480
 72
     1
 10
297.95076052
 20
-237.33730480
 11
296.97551318
 21
-237.33730480
 72
     1
 10
296.97551318
 20
-237.33730480
 11
296.97551318
 21
-228.68557381
 97
     0
 75
     0
 76
     1
 52
0.00000125
 41
0.05148099
 77
     0
 78
     1
 53
45.00000125
 43
0.0
 44
0.0
 45
0.00000001
 46
0.06435124
 79
     0
 98
     1
 10
0.0
 20
0.0
  0
ENDBLK
  5
21C
100
AcDbEntity
  8
0
100
AcDbBlockEnd
  0
BLOCK
  5
21D
100
AcDbEntity
  8
0
100
AcDbBlockBegin
  2
LOGO_00008
 70
    64
 10
301.70105195
 20
-228.68557381
 30
0.0
  3
LOGO_00008
  0
HATCH
  5
21E
100
AcDbEntity
  8
HATCH
100
AcDbHatch
 62
    30
 10
0.0
 20
0.0
 30
0.0
210
0.0
220
0.0
230
1.0
  2
ANSI31
 70
     0
 71
     0
 91
     1
 92
     1
 93
     8
 72
     1
 10
301.70105195
 20
-228.68557381
 11
302.67629929
 21
-228.68557381
 72
     1
 10
302.67629929
 20
-228.68557381
 11
302.67629929
 21
-237.33730480
 72
     1
 10
302.67629929
 20
-237.33730480
 11
301.70105195
 21
-237.33730480
 72
     1
 10
301.70105195
 20
-237.33730480
 11
301.70105195
 21
-228.68557381
 72
     1
 10
299.85618494
 20
-228.68557381
 11
300.83143227
 21
-228.68557381
 72
     1
 10
300.83143227
 20
-228.68557381
 11
300.83143227
 21
-237.33730480
 72
     1
 10
300.83143227
 20
-237.33730480
 11
299.85618494
 21
-237.33730480
 72
     1
 10
299.85618494
 20
-237.33730480
 11
299.85618494
 21
-228.68557381
 97
     0
 75
     0
 76
     1
 52
0.00000125
 41
0.05148099
 77
     0
 78
     1
 53
45.00000125
 43
0.0
 44
0.0
 45
0.00000001
 46
0.06435124
 79
     0
 98
     1
 10
0.0
 20
0.0
  0
ENDBLK
  5
21F
100
AcDbEntity
  8
0
100
AcDbBlockEnd
  0
BLOCK
  5
220
100
AcDbEntity
  8
0
100
AcDbBlockBegin
  2
LOGO_00009
 70
    64
 10
302.67629929
 20
-228.68557381
 30
0.0
  3
LOGO_00009
  0
HATCH
  5
221
100
AcDbEntity
  8
HATCH
100
AcDbHatch
 62
    51
 10
0.0
 20
0.0
 30
0.0
210
0.0
220
0.0
230
1.0
  2
ANSI31
 70
     0
 71
     0
 91
     1
 92
     1
 93
     4
 72
     1
 10
302.67629929
 20
-228.68557381
 11
303.65154662
 21
-228.68557381
 72
     1
 10
303.65154662
 20
-228.68557381
 11
303.65154662
 21
-237.33730480
 72
     1
 10
303.65154662
 20
-237.33730480
 11
302.67629929
 21
-237.33730480
 72
     1
 10
302.67629929
 20
-237.33730480
 11
302.67629929
 21
-228.68557381
 97
     0
 75
     0
 76
     1
 52
0.00000125
 41
0.05148099
 77
     0
 78
     1
 53
45.00000125
 43
0.0
 44
0.0
 45
0.00000001
 46
0.06435124
 79
     0
 98
     1
 10
0.0
 20
0.0
  0
ENDBLK
  5
222
100
AcDbEntity
  8
0
100
AcDbBlockEnd
  0
BLOCK
  5
223
100
AcDbEntity
  8
0
100
AcDbBlockBegin
  2
ANS3D02_00010
 70
    64
 10
0.0
 20
0.0
 30
0.0
  3
ANS3D02_00010
  0
INSERT
  5
224
100
AcDbEntity
  8
0
100
AcDbBlockReference
  2
FIG3D02_00011
 10
0.0
 20
0.0
 30
0.0
  0
INSERT
  5
225
100
AcDbEntity
  8
0
100
AcDbBlockReference
  2
FIG2D02_00051
 10
100.88443213
 20
-96.41570366
 30
0.0
  0
ENDBLK
  5
226
100
AcDbEntity
  8
0
100
AcDbBlockEnd
  0
BLOCK
  5
227
100
AcDbEntity
  8
0
100
AcDbBlockBegin
  2
FIG3D02_00011
 70
    64
 10
0.0
 20
0.0
 30
0.0
  3
FIG3D02_00011
  0
INSERT
  5
228
100
AcDbEntity
  8
0
100
AcDbBlockReference
  2
DICHTSCHNUR_00012
 10
0.0
 20
0.0
 30
0.0
  0
INSERT
  5
229
100
AcDbEntity
  8
0
100
AcDbBlockReference
  2
544608699_00014
 10
0.0
 20
0.0
 30
0.0
  0
INSERT
  5
22A
100
AcDbEntity
  8
0
100
AcDbBlockReference
  2
544608699_00016
 10
0.0
 20
0.0
 30
0.0
  0
INSERT
  5
22B
100
AcDbEntity
  8
0
100
AcDbBlockReference
  2
544606891_00018
 10
0.0
 20
0.0
 30
0.0
  0
INSERT
  5
22C
100
AcDbEntity
  8
0
100
AcDbBlockReference
  2
544609506_00020
 10
0.0
 20
0.0
 30
0.0
  0
INSERT
  5
22D
100
AcDbEntity
  8
0
100
AcDbBlockReference
  2
544609506_00022
 10
0.0
 20
0.0
 30
0.0
  0
INSERT
  5
22E
100
AcDbEntity
  8
0
100
AcDbBlockReference
  2
SOCKELLEISTENHALTER_00024
 10
0.0
 20
0.0
 30
0.0
  0
INSERT
  5
22F
100
AcDbEntity
  8
0
100
AcDbBlockReference
  2
544616151_00026
 10
0.0
 20
0.0
 30
0.0
  0
INSERT
  5
230
100
AcDbEntity
  8
0
100
AcDbBlockReference
  2
544614108_00028
 10
0.0
 20
0.0
 30
0.0
  0
INSERT
  5
231
100
AcDbEntity
  8
0
100
AcDbBlockReference
  2
544615594_00030
 10
0.0
 20
0.0
 30
0.0
  0
INSERT
  5
232
100
AcDbEntity
  8
0
100
AcDbBlockReference
  2
544612208_00032
 10
0.0
 20
0.0
 30
0.0
  0
INSERT
  5
233
100
AcDbEntity
  8
0
100
AcDbBlockReference
  2
551893631_00034
 10
0.0
 20
0.0
 30
0.0
  0
INSERT
  5
234
100
AcDbEntity
  8
0
100
AcDbBlockReference
  2
524834352_00036
 10
0.0
 20
0.0
 30
0.0
  0
INSERT
  5
235
100
AcDbEntity
  8
0
100
AcDbBlockReference
  2
524834525_00038
 10
0.0
 20
0.0
 30
0.0
  0
INSERT
  5
236
100
AcDbEntity
  8
0
100
AcDbBlockReference
  2
524834525_00040
 10
0.0
 20
0.0
 30
0.0
  0
INSERT
  5
237
100
AcDbEntity
  8
0
100
AcDbBlockReference
  2
524834870_00042
 10
0.0
 20
0.0
 30
0.0
  0
INSERT
  5
238
100
AcDbEntity
  8
0
100
AcDbBlockReference
  2
524834870_00044
 10
0.0
 20
0.0
 30
0.0
  0
INSERT
  5
239
100
AcDbEntity
  8
0
100
AcDbBlockReference
  2
Teil_00046
 10
0.0
 20
0.0
 30
0.0
  0
ENDBLK
  5
23A
100
AcDbEntity
  8
0
100
AcDbBlockEnd
  0
BLOCK
  5
23B
100
AcDbEntity
  8
0
100
AcDbBlockBegin
  2
DICHTSCHNUR_00012
 70
    64
 10
0.0
 20
0.0
 30
0.0
  3
DICHTSCHNUR_00012
  0
INSERT
  5
23C
100
AcDbEntity
  8
0
100
AcDbBlockReference
  2
_DICHTSCHNUR_00013
 10
-91.39372783
 20
59.54045287
 30
0.0
  0
ENDBLK
  5
23D
100
AcDbEntity
  8
0
100
AcDbBlockEnd
  0
BLOCK
  5
23E
100
AcDbEntity
  8
0
100
AcDbBlockBegin
  2
_DICHTSCHNUR_00013
 70
    64
 10
-91.39372783
 20
59.54045287
 30
0.0
  3
_DICHTSCHNUR_00013
  0
CIRCLE
  5
23F
100
AcDbEntity
  8
0
100
AcDbCircle
 10
-93.89372783
 20
59.54045287
 30
0.0
 40
2.50000000
  0
CIRCLE
  5
240
100
AcDbEntity
  8
0
100
AcDbCircle
 10
-93.89372783
 20
59.54045287
 30
0.0
 40
2.50000000
  0
ENDBLK
  5
241
100
AcDbEntity
  8
0
100
AcDbBlockEnd
  0
BLOCK
  5
242
100
AcDbEntity
  8
0
100
AcDbBlockBegin
  2
544608699_00014
 70
    64
 10
0.0
 20
0.0
 30
0.0
  3
544608699_00014
  0
INSERT
  5
243
100
AcDbEntity
  8
0
100
AcDbBlockReference
  2
_544608699_00015
 10
-192.80000000
 20
-12.75000000
 30
0.0
  0
ENDBLK
  5
244
100
AcDbEntity
  8
0
100
AcDbBlockEnd
  0
BLOCK
  5
245
100
AcDbEntity
  8
0
100
AcDbBlockBegin
  2
_544608699_00015
 70
    64
 10
-192.80000000
 20
-12.75000000
 30
0.0
  3
_544608699_00015
  0
POLYLINE
  5
246
100
AcDbEntity
  8
0
100
AcDb2dPolyline
 66
     1
 70
     1
  0
VERTEX
  5
247
100
AcDbEntity
  8
0
100
AcDbVertex
100
AcDb2dVertex
 10
-192.80000000
 20
-12.75000000
 30
0.0
  0
VERTEX
  5
248
100
AcDbEntity
  8
0
100
AcDbVertex
100
AcDb2dVertex
 10
-192.30000000
 20
-12.25000000
 30
0.0
  0
SEQEND
  5
249
100
AcDbEntity
  8
0
  0
POLYLINE
  5
24A
100
AcDbEntity
  8
0
100
AcDb2dPolyline
 66
     1
 70
     1
  0
VERTEX
  5
24B
100
AcDbEntity
  8
0
100
AcDbVertex
100
AcDb2dVertex
 10
-192.30000000
 20
-12.25000000
 30
0.0
  0
VERTEX
  5
24C
100
AcDbEntity
  8
0
100
AcDbVertex
100
AcDb2dVertex
 10
-185.30000000
 20
-12.25000000
 30
0.0
  0
SEQEND
  5
24D
100
AcDbEntity
  8
0
  0
POLYLINE
  5
24E
100
AcDbEntity
  8
0
100
AcDb2dPolyline
 66
     1
 70
     1
  0
VERTEX
  5
24F
100
AcDbEntity
  8
0
100
AcDbVertex
100
AcDb2dVertex
 10
-185.30000000
 20
-12.25000000
 30
0.0
  0
VERTEX
  5
250
100
AcDbEntity
  8
0
100
AcDbVertex
100
AcDb2dVertex
 10
-185.30000000
 20
0.25000000
 30
0.0
  0
SEQEND
  5
251
100
AcDbEntity
  8
0
  0
POLYLINE
  5
252
100
AcDbEntity
  8
0
100
AcDb2dPolyline
 66
     1
 70
     1
  0
VERTEX
  5
253
100
AcDbEntity
  8
0
100
AcDbVertex
100
AcDb2dVertex
 10
-185.30000000
 20
0.25000000
 30
0.0
  0
VERTEX
  5
254
100
AcDbEntity
  8
0
100
AcDbVertex
100
AcDb2dVertex
 10
-179.80000000
 20
0.25000000
 30
0.0
  0
SEQEND
  5
255
100
AcDbEntity
  8
0
  0
POLYLINE
  5
256
100
AcDbEntity
  8
0
100
AcDb2dPolyline
 66
     1
 70
     1
  0
VERTEX
  5
257
100
AcDbEntity
  8
0
100
AcDbVertex
100
AcDb2dVertex
 10
-179.80000000
 20
0.25000000
 30
0.0
  0
VERTEX
  5
258
100
AcDbEntity
  8
0
100
AcDbVertex
100
AcDb2dVertex
 10
-179.80000000
 20
-14.75000000
 30
0.0
  0
SEQEND
  5
259
100
AcDbEntity
  8
0
  0
POLYLINE
  5
25A
100
AcDbEntity
  8
0
100
AcDb2dPolyline
 66
     1
 70
     1
  0
VERTEX
  5
25B
100
AcDbEntity
  8
0
100
AcDbVertex
100
AcDb2dVertex
 10
-179.80000000
 20
-14.75000000
 30
0.0
  0
VERTEX
  5
25C
100
AcDbEntity
  8
0
100
AcDbVertex
100
AcDb2dVertex
 10
-233.80000000
 20
-14.75000000
 30
0.0
  0
SEQEND
  5
25D
100
AcDbEntity
  8
0
  0
POLYLINE
  5
25E
100
AcDbEntity
  8
0
100
AcDb2dPolyline
 66
     1
 70
     1
  0
VERTEX
  5
25F
100
AcDbEntity
  8
0
100
AcDbVertex
100
AcDb2dVertex
 10
-233.80000000
 20
-14.75000000
 30
0.0
  0
VERTEX
  5
260
100
AcDbEntity
  8
0
100
AcDbVertex
100
AcDb2dVertex
 10
-233.80000000
 20
15.25000000
 30
0.0
  0
SEQEND
  5
261
100
AcDbEntity
  8
0
  0
POLYLINE
  5
262
100
AcDbEntity
  8
0
100
AcDb2dPolyline
 66
     1
 70
     1
  0
VERTEX
  5
263
100
AcDbEntity
  8
0
100
AcDbVertex
100
AcDb2dVertex
 10
-233.80000000
 20
15.25000000
 30
0.0
  0
VERTEX
  5
264
100
AcDbEntity
  8
0
100
AcDbVertex
100
AcDb2dVertex
 10
-206.80000000
 20
15.25000000
 30
0.0
  0
SEQEND
  5
265
100
AcDbEntity
  8
0
  0
POLYLINE
  5
266
100
AcDbEntity
  8
0
100
AcDb2dPolyline
 66
     1
 70
     1
  0
VERTEX
  5
267
100
AcDbEntity
  8
0
100
AcDbVertex
100
AcDb2dVertex
 10
-206.80000000
 20
15.25000000
 30
0.0
  0
VERTEX
  5
268
100
AcDbEntity
  8
0
100
AcDbVertex
100
AcDb2dVertex
 10
-206.80000000
 20
11.25000000
 30
0.0
  0
SEQEND
  5
269
100
AcDbEntity
  8
0
  0
POLYLINE
  5
26A
100
AcDbEntity
  8
0
100
AcDb2dPolyline
 66
     1
 70
     1
  0
VERTEX
  5
26B
100
AcDbEntity
  8
0
100
AcDbVertex
100
AcDb2dVertex
 10
-206.80000000
 20
11.25000000
 30
0.0
  0
VERTEX
  5
26C
100
AcDbEntity
  8
0
100
AcDbVertex
100
AcDb2dVertex
 10
-211.80000000
 20
11.25000000
 30
0.0
  0
SEQEND
  5
26D
100
AcDbEntity
  8
0
  0
POLYLINE
  5
26E
100
AcDbEntity
  8
0
100
AcDb2dPolyline
 66
     1
 70
     1
  0
VERTEX
  5
26F
100
AcDbEntity
  8
0
100
AcDbVertex
100
AcDb2dVertex
 10
-211.80000000
 20
7.95000000
 30
0.0
  0
VERTEX
  5
270
100
AcDbEntity
  8
0
100
AcDbVertex
100
AcDb2dVertex
 10
-211.80000000
 20
11.25000000
 30
0.0
  0
VERTEX
  5
271
100
AcDbEntity
  8
0
100
AcDbVertex
100
AcDb2dVertex
 10
-211.80000000
 20
7.95000000
 30
0.0
  0
VERTEX
  5
272
100
AcDbEntity
  8
0
100
AcDbVertex
100
AcDb2dVertex
 10
-200.80000000
 20
7.95000000
 30
0.0
  0
SEQEND
  5
273
100
AcDbEntity
  8
0
  0
POLYLINE
  5
274
100
AcDbEntity
  8
0
100
AcDb2dPolyline
 66
     1
 70
     1
  0
VERTEX
  5
275
100
AcDbEntity
  8
0
100
AcDbVertex
100
AcDb2dVertex
 10
-200.80000000
 20
7.95000000
 30
0.0
  0
VERTEX
  5
276
100
AcDbEntity
  8
0
100
AcDbVertex
100
AcDb2dVertex
 10
-200.80000000
 20
-12.25000000
 30
0.0
  0
SEQEND
  5
277
100
AcDbEntity
  8
0
  0
POLYLINE
  5
278
100
AcDbEntity
  8
0
100
AcDb2dPolyline
 66
     1
 70
     1
  0
VERTEX
  5
279
100
AcDbEntity
  8
0
100
AcDbVertex
100
AcDb2dVertex
 10
-200.80000000
 20
-12.25000000
 30
0.0
  0
VERTEX
  5
27A
100
AcDbEntity
  8
0
100
AcDbVertex
100
AcDb2dVertex
 10
-193.30000000
 20
-12.25000000
 30
0.0
  0
SEQEND
  5
27B
100
AcDbEntity
  8
0
  0
POLYLINE
  5
27C
100
AcDbEntity
  8
0
100
AcDb2dPolyline
 66
     1
 70
     1
  0
VERTEX
  5
27D
100
AcDbEntity
  8
0
100
AcDbVertex
100
AcDb2dVertex
 10
-192.80000000
 20
-12.75000000
 30
0.0
  0
VERTEX
  5
27E
100
AcDbEntity
  8
0
100
AcDbVertex
100
AcDb2dVertex
 10
-193.30000000
 20
-12.25000000
 30
0.0
  0
SEQEND
  5
27F
100
AcDbEntity
  8
0
  0
LINE
  5
280
100
AcDbEntity
  8
0
100
AcDbLine
 10
-214.30000000
 20
12.75000000
 30
0.0
 11
-214.30000000
 21
-12.75000000
 31
0.0
  0
LINE
  5
281
100
AcDbEntity
  8
0
100
AcDbLine
 10
-231.80000000
 20
12.75000000
 30
0.0
 11
-214.30000000
 21
12.75000000
 31
0.0
  0
LINE
  5
282
100
AcDbEntity
  8
0
100
AcDbLine
 10
-231.80000000
 20
-12.75000000
 30
0.0
 11
-231.80000000
 21
12.75000000
 31
0.0
  0
LINE
  5
283
100
AcDbEntity
  8
0
100
AcDbLine
 10
-214.30000000
 20
-12.75000000
 30
0.0
 11
-231.80000000
 21
-12.75000000
 31
0.0
  0
POLYLINE
  5
284
100
AcDbEntity
  8
0
100
AcDb2dPolyline
 66
     1
 70
     1
  0
VERTEX
  5
285
100
AcDbEntity
  8
0
100
AcDbVertex
100
AcDb2dVertex
 10
-214.30000000
 20
-12.75000000
 30
0.0
  0
VERTEX
  5
286
100
AcDbEntity
  8
0
100
AcDbVertex
100
AcDb2dVertex
 10
-214.30000000
 20
12.75000000
 30
0.0
  0
VERTEX
  5
287
100
AcDbEntity
  8
0
100
AcDbVertex
100
AcDb2dVertex
 10
-231.80000000
 20
12.75000000
 30
0.0
  0
VERTEX
  5
288
100
AcDbEntity
  8
0
100
AcDbVertex
100
AcDb2dVertex
 10
-231.80000000
 20
-12.75000000
 30
0.0
  0
SEQEND
  5
289
100
AcDbEntity
  8
0
  0
POINT
  5
28A
100
AcDbEntity
  8
0
100
AcDbPoint
 10
-206.80000000
 20
-0.25000000
 30
0.0
  0
POINT
  5
28B
100
AcDbEntity
  8
0
100
AcDbPoint
 10
-206.80000000
 20
-0.25000000
 30
0.0
  0
ENDBLK
  5
28C
100
AcDbEntity
  8
0
100
AcDbBlockEnd
  0
BLOCK
  5
28D
100
AcDbEntity
  8
0
100
AcDbBlockBegin
  2
544608699_00016
 70
    64
 10
0.0
 20
0.0
 30
0.0
  3
544608699_00016
  0
INSERT
  5
28E
100
AcDbEntity
  8
0
100
AcDbBlockReference
  2
_544608699_00017
 10
-231.80000000
 20
190.25000000
 30
0.0
  0
ENDBLK
  5
28F
100
AcDbEntity
  8
0
100
AcDbBlockEnd
  0
BLOCK
  5
290
100
AcDbEntity
  8
0
100
AcDbBlockBegin
  2
_544608699_00017
 70
    64
 10
-231.80000000
 20
190.25000000
 30
0.0
  3
_544608699_00017
  0
POLYLINE
  5
291
100
AcDbEntity
  8
0
100
AcDb2dPolyline
 66
     1
 70
     1
  0
VERTEX
  5
292
100
AcDbEntity
  8
0
100
AcDbVertex
100
AcDb2dVertex
 10
-231.80000000
 20
190.25000000
 30
0.0
  0
VERTEX
  5
293
100
AcDbEntity
  8
0
100
AcDbVertex
100
AcDb2dVertex
 10
-231.80000000
 20
165.25000000
 30
0.0
  0
SEQEND
  5
294
100
AcDbEntity
  8
0
  0
POLYLINE
  5
295
100
AcDbEntity
  8
0
100
AcDb2dPolyline
 66
     1
 70
     1
  0
VERTEX
  5
296
100
AcDbEntity
  8
0
100
AcDbVertex
100
AcDb2dVertex
 10
-231.80000000
 20
165.25000000
 30
0.0
  0
VERTEX
  5
297
100
AcDbEntity
  8
0
100
AcDbVertex
100
AcDb2dVertex
 10
-206.80000000
 20
165.25000000
 30
0.0
  0
SEQEND
  5
298
100
AcDbEntity
  8
0
  0
POLYLINE
  5
299
100
AcDbEntity
  8
0
100
AcDb2dPolyline
 66
     1
 70
     1
  0
VERTEX
  5
29A
100
AcDbEntity
  8
0
100
AcDbVertex
100
AcDb2dVertex
 10
-206.80000000
 20
165.25000000
 30
0.0
  0
VERTEX
  5
29B
100
AcDbEntity
  8
0
100
AcDbVertex
100
AcDb2dVertex
 10
-206.80000000
 20
161.25000000
 30
0.0
  0
SEQEND
  5
29C
100
AcDbEntity
  8
0
  0
POLYLINE
  5
29D
100
AcDbEntity
  8
0
100
AcDb2dPolyline
 66
     1
 70
     1
  0
VERTEX
  5
29E
100
AcDbEntity
  8
0
100
AcDbVertex
100
AcDb2dVertex
 10
-206.80000000
 20
161.25000000
 30
0.0
  0
VERTEX
  5
29F
100
AcDbEntity
  8
0
100
AcDbVertex
100
AcDb2dVertex
 10
-211.80000000
 20
161.25000000
 30
0.0
  0
SEQEND
  5
2A0
100
AcDbEntity
  8
0
  0
POLYLINE
  5
2A1
100
AcDbEntity
  8
0
100
AcDb2dPolyline
 66
     1
 70
     1
  0
VERTEX
  5
2A2
100
AcDbEntity
  8
0
100
AcDbVertex
100
AcDb2dVertex
 10
-211.80000000
 20
157.95000000
 30
0.0
  0
VERTEX
  5
2A3
100
AcDbEntity
  8
0
100
AcDbVertex
100
AcDb2dVertex
 10
-211.80000000
 20
161.25000000
 30
0.0
  0
VERTEX
  5
2A4
100
AcDbEntity
  8
0
100
AcDbVertex
100
AcDb2dVertex
 10
-211.80000000
 20
157.95000000
 30
0.0
  0
VERTEX
  5
2A5
100
AcDbEntity
  8
0
100
AcDbVertex
100
AcDb2dVertex
 10
-200.80000000
 20
157.95000000
 30
0.0
  0
SEQEND
  5
2A6
100
AcDbEntity
  8
0
  0
POLYLINE
  5
2A7
100
AcDbEntity
  8
0
100
AcDb2dPolyline
 66
     1
 70
     1
  0
VERTEX
  5
2A8
100
AcDbEntity
  8
0
100
AcDbVertex
100
AcDb2dVertex
 10
-200.80000000
 20
157.95000000
 30
0.0
  0
VERTEX
  5
2A9
100
AcDbEntity
  8
0
100
AcDbVertex
100
AcDb2dVertex
 10
-200.80000000
 20
137.75000000
 30
0.0
  0
SEQEND
  5
2AA
100
AcDbEntity
  8
0
  0
POLYLINE
  5
2AB
100
AcDbEntity
  8
0
100
AcDb2dPolyline
 66
     1
 70
     1
  0
VERTEX
  5
2AC
100
AcDbEntity
  8
0
100
AcDbVertex
100
AcDb2dVertex
 10
-200.80000000
 20
137.75000000
 30
0.0
  0
VERTEX
  5
2AD
100
AcDbEntity
  8
0
100
AcDbVertex
100
AcDb2dVertex
 10
-193.30000000
 20
137.75000000
 30
0.0
  0
SEQEND
  5
2AE
100
AcDbEntity
  8
0
  0
POLYLINE
  5
2AF
100
AcDbEntity
  8
0
100
AcDb2dPolyline
 66
     1
 70
     1
  0
VERTEX
  5
2B0
100
AcDbEntity
  8
0
100
AcDbVertex
100
AcDb2dVertex
 10
-192.80000000
 20
137.25000000
 30
0.0
  0
VERTEX
  5
2B1
100
AcDbEntity
  8
0
100
AcDbVertex
100
AcDb2dVertex
 10
-193.30000000
 20
137.75000000
 30
0.0
  0
VERTEX
  5
2B2
100
AcDbEntity
  8
0
100
AcDbVertex
100
AcDb2dVertex
 10
-192.80000000
 20
137.25000000
 30
0.0
  0
VERTEX
  5
2B3
100
AcDbEntity
  8
0
100
AcDbVertex
100
AcDb2dVertex
 10
-192.30000000
 20
137.75000000
 30
0.0
  0
SEQEND
  5
2B4
100
AcDbEntity
  8
0
  0
POLYLINE
  5
2B5
100
AcDbEntity
  8
0
100
AcDb2dPolyline
 66
     1
 70
     1
  0
VERTEX
  5
2B6
100
AcDbEntity
  8
0
100
AcDbVertex
100
AcDb2dVertex
 10
-192.30000000
 20
137.75000000
 30
0.0
  0
VERTEX
  5
2B7
100
AcDbEntity
  8
0
100
AcDbVertex
100
AcDb2dVertex
 10
-185.30000000
 20
137.75000000
 30
0.0
  0
SEQEND
  5
2B8
100
AcDbEntity
  8
0
  0
POLYLINE
  5
2B9
100
AcDbEntity
  8
0
100
AcDb2dPolyline
 66
     1
 70
     1
  0
VERTEX
  5
2BA
100
AcDbEntity
  8
0
100
AcDbVertex
100
AcDb2dVertex
 10
-185.30000000
 20
137.75000000
 30
0.0
  0
VERTEX
  5
2BB
100
AcDbEntity
  8
0
100
AcDbVertex
100
AcDb2dVertex
 10
-185.30000000
 20
150.25000000
 30
0.0
  0
SEQEND
  5
2BC
100
AcDbEntity
  8
0
  0
POLYLINE
  5
2BD
100
AcDbEntity
  8
0
100
AcDb2dPolyline
 66
     1
 70
     1
  0
VERTEX
  5
2BE
100
AcDbEntity
  8
0
100
AcDbVertex
100
AcDb2dVertex
 10
-185.30000000
 20
150.25000000
 30
0.0
  0
VERTEX
  5
2BF
100
AcDbEntity
  8
0
100
AcDbVertex
100
AcDb2dVertex
 10
-179.80000000
 20
150.25000000
 30
0.0
  0
SEQEND
  5
2C0
100
AcDbEntity
  8
0
  0
POLYLINE
  5
2C1
100
AcDbEntity
  8
0
100
AcDb2dPolyline
 66
     1
 70
     1
  0
VERTEX
  5
2C2
100
AcDbEntity
  8
0
100
AcDbVertex
100
AcDb2dVertex
 10
-179.80000000
 20
150.25000000
 30
0.0
  0
VERTEX
  5
2C3
100
AcDbEntity
  8
0
100
AcDbVertex
100
AcDb2dVertex
 10
-179.80000000
 20
135.25000000
 30
0.0
  0
SEQEND
  5
2C4
100
AcDbEntity
  8
0
  0
POLYLINE
  5
2C5
100
AcDbEntity
  8
0
100
AcDb2dPolyline
 66
     1
 70
     1
  0
VERTEX
  5
2C6
100
AcDbEntity
  8
0
100
AcDbVertex
100
AcDb2dVertex
 10
-179.80000000
 20
135.25000000
 30
0.0
  0
VERTEX
  5
2C7
100
AcDbEntity
  8
0
100
AcDbVertex
100
AcDb2dVertex
 10
-233.80000000
 20
135.25000000
 30
0.0
  0
SEQEND
  5
2C8
100
AcDbEntity
  8
0
  0
POLYLINE
  5
2C9
100
AcDbEntity
  8
0
100
AcDb2dPolyline
 66
     1
 70
     1
  0
VERTEX
  5
2CA
100
AcDbEntity
  8
0
100
AcDbVertex
100
AcDb2dVertex
 10
-233.80000000
 20
135.25000000
 30
0.0
  0
VERTEX
  5
2CB
100
AcDbEntity
  8
0
100
AcDbVertex
100
AcDb2dVertex
 10
-233.80000000
 20
165.25000000
 30
0.0
  0
SEQEND
  5
2CC
100
AcDbEntity
  8
0
  0
POLYLINE
  5
2CD
100
AcDbEntity
  8
0
100
AcDb2dPolyline
 66
     1
 70
     1
  0
VERTEX
  5
2CE
100
AcDbEntity
  8
0
100
AcDbVertex
100
AcDb2dVertex
 10
-233.80000000
 20
165.25000000
 30
0.0
  0
VERTEX
  5
2CF
100
AcDbEntity
  8
0
100
AcDbVertex
100
AcDb2dVertex
 10
-233.80000000
 20
190.25000000
 30
0.0
  0
SEQEND
  5
2D0
100
AcDbEntity
  8
0
  0
POLYLINE
  5
2D1
100
AcDbEntity
  8
0
100
AcDb2dPolyline
 66
     1
 70
     1
  0
VERTEX
  5
2D2
100
AcDbEntity
  8
0
100
AcDbVertex
100
AcDb2dVertex
 10
-233.80000000
 20
190.25000000
 30
0.0
  0
VERTEX
  5
2D3
100
AcDbEntity
  8
0
100
AcDbVertex
100
AcDb2dVertex
 10
-231.80000000
 20
190.25000000
 30
0.0
  0
SEQEND
  5
2D4
100
AcDbEntity
  8
0
  0
LINE
  5
2D5
100
AcDbEntity
  8
0
100
AcDbLine
 10
-214.30000000
 20
162.75000000
 30
0.0
 11
-214.30000000
 21
137.25000000
 31
0.0
  0
LINE
  5
2D6
100
AcDbEntity
  8
0
100
AcDbLine
 10
-231.80000000
 20
162.75000000
 30
0.0
 11
-214.30000000
 21
162.75000000
 31
0.0
  0
LINE
  5
2D7
100
AcDbEntity
  8
0
100
AcDbLine
 10
-231.80000000
 20
137.25000000
 30
0.0
 11
-231.80000000
 21
162.75000000
 31
0.0
  0
LINE
  5
2D8
100
AcDbEntity
  8
0
100
AcDbLine
 10
-214.30000000
 20
137.25000000
 30
0.0
 11
-231.80000000
 21
137.25000000
 31
0.0
  0
POLYLINE
  5
2D9
100
AcDbEntity
  8
0
100
AcDb2dPolyline
 66
     1
 70
     1
  0
VERTEX
  5
2DA
100
AcDbEntity
  8
0
100
AcDbVertex
100
AcDb2dVertex
 10
-214.30000000
 20
137.25000000
 30
0.0
  0
VERTEX
  5
2DB
100
AcDbEntity
  8
0
100
AcDbVertex
100
AcDb2dVertex
 10
-214.30000000
 20
162.75000000
 30
0.0
  0
VERTEX
  5
2DC
100
AcDbEntity
  8
0
100
AcDbVertex
100
AcDb2dVertex
 10
-231.80000000
 20
162.75000000
 30
0.0
  0
VERTEX
  5
2DD
100
AcDbEntity
  8
0
100
AcDbVertex
100
AcDb2dVertex
 10
-231.80000000
 20
137.25000000
 30
0.0
  0
SEQEND
  5
2DE
100
AcDbEntity
  8
0
  0
POINT
  5
2DF
100
AcDbEntity
  8
0
100
AcDbPoint
 10
-206.80000000
 20
149.75000000
 30
0.0
  0
POINT
  5
2E0
100
AcDbEntity
  8
0
100
AcDbPoint
 10
-206.80000000
 20
149.75000000
 30
0.0
  0
ENDBLK
  5
2E1
100
AcDbEntity
  8
0
100
AcDbBlockEnd
  0
BLOCK
  5
2E2
100
AcDbEntity
  8
0
100
AcDbBlockBegin
  2
544606891_00018
 70
    64
 10
0.0
 20
0.0
 30
0.0
  3
544606891_00018
  0
INSERT
  5
2E3
100
AcDbEntity
  8
0
100
AcDbBlockReference
  2
_544606891_00019
 10
-171.80000000
 20
15.25000000
 30
0.0
  0
ENDBLK
  5
2E4
100
AcDbEntity
  8
0
100
AcDbBlockEnd
  0
BLOCK
  5
2E5
100
AcDbEntity
  8
0
100
AcDbBlockBegin
  2
_544606891_00019
 70
    64
 10
-171.80000000
 20
15.25000000
 30
0.0
  3
_544606891_00019
  0
POLYLINE
  5
2E6
100
AcDbEntity
  8
0
100
AcDb2dPolyline
 66
     1
 70
     1
  0
VERTEX
  5
2E7
100
AcDbEntity
  8
0
100
AcDbVertex
100
AcDb2dVertex
 10
-171.80000000
 20
15.25000000
 30
0.0
  0
VERTEX
  5
2E8
100
AcDbEntity
  8
0
100
AcDbVertex
100
AcDb2dVertex
 10
-171.80000000
 20
11.25000000
 30
0.0
  0
VERTEX
  5
2E9
100
AcDbEntity
  8
0
100
AcDbVertex
100
AcDb2dVertex
 10
-171.80000000
 20
15.25000000
 30
0.0
  0
VERTEX
  5
2EA
100
AcDbEntity
  8
0
100
AcDbVertex
100
AcDb2dVertex
 10
160.90000000
 20
15.25000000
 30
0.0
  0
SEQEND
  5
2EB
100
AcDbEntity
  8
0
  0
POLYLINE
  5
2EC
100
AcDbEntity
  8
0
100
AcDb2dPolyline
 66
     1
 70
     1
  0
VERTEX
  5
2ED
100
AcDbEntity
  8
0
100
AcDbVertex
100
AcDb2dVertex
 10
160.90000000
 20
15.25000000
 30
0.0
  0
VERTEX
  5
2EE
100
AcDbEntity
  8
0
100
AcDbVertex
100
AcDb2dVertex
 10
160.90000000
 20
11.25000000
 30
0.0
  0
SEQEND
  5
2EF
100
AcDbEntity
  8
0
  0
POLYLINE
  5
2F0
100
AcDbEntity
  8
0
100
AcDb2dPolyline
 66
     1
 70
     1
  0
VERTEX
  5
2F1
100
AcDbEntity
  8
0
100
AcDbVertex
100
AcDb2dVertex
 10
155.90000000
 20
11.25000000
 30
0.0
  0
VERTEX
  5
2F2
100
AcDbEntity
  8
0
100
AcDbVertex
100
AcDb2dVertex
 10
160.90000000
 20
11.25000000
 30
0.0
  0
SEQEND
  5
2F3
100
AcDbEntity
  8
0
  0
POLYLINE
  5
2F4
100
AcDbEntity
  8
0
100
AcDb2dPolyline
 66
     1
 70
     1
  0
VERTEX
  5
2F5
100
AcDbEntity
  8
0
100
AcDbVertex
100
AcDb2dVertex
 10
155.90000000
 20
7.95000000
 30
0.0
  0
VERTEX
  5
2F6
100
AcDbEntity
  8
0
100
AcDbVertex
100
AcDb2dVertex
 10
155.90000000
 20
11.25000000
 30
0.0
  0
VERTEX
  5
2F7
100
AcDbEntity
  8
0
100
AcDbVertex
100
AcDb2dVertex
 10
155.90000000
 20
7.95000000
 30
0.0
  0
VERTEX
  5
2F8
100
AcDbEntity
  8
0
100
AcDbVertex
100
AcDb2dVertex
 10
166.90000000
 20
7.95000000
 30
0.0
  0
SEQEND
  5
2F9
100
AcDbEntity
  8
0
  0
POLYLINE
  5
2FA
100
AcDbEntity
  8
0
100
AcDb2dPolyline
 66
     1
 70
     1
  0
VERTEX
  5
2FB
100
AcDbEntity
  8
0
100
AcDbVertex
100
AcDb2dVertex
 10
166.90000000
 20
7.95000000
 30
0.0
  0
VERTEX
  5
2FC
100
AcDbEntity
  8
0
100
AcDbVertex
100
AcDb2dVertex
 10
166.90000000
 20
-12.25000000
 30
0.0
  0
SEQEND
  5
2FD
100
AcDbEntity
  8
0
  0
POLYLINE
  5
2FE
100
AcDbEntity
  8
0
100
AcDb2dPolyline
 66
     1
 70
     1
  0
VERTEX
  5
2FF
100
AcDbEntity
  8
0
100
AcDbVertex
100
AcDb2dVertex
 10
166.90000000
 20
-12.25000000
 30
0.0
  0
VERTEX
  5
300
100
AcDbEntity
  8
0
100
AcDbVertex
100
AcDb2dVertex
 10
182.40000000
 20
-12.25000000
 30
0.0
  0
SEQEND
  5
301
100
AcDbEntity
  8
0
  0
POLYLINE
  5
302
100
AcDbEntity
  8
0
100
AcDb2dPolyline
 66
     1
 70
     1
  0
VERTEX
  5
303
100
AcDbEntity
  8
0
100
AcDbVertex
100
AcDb2dVertex
 10
182.40000000
 20
0.25000000
 30
0.0
  0
VERTEX
  5
304
100
AcDbEntity
  8
0
100
AcDbVertex
100
AcDb2dVertex
 10
182.40000000
 20
-12.25000000
 30
0.0
  0
SEQEND
  5
305
100
AcDbEntity
  8
0
  0
POLYLINE
  5
306
100
AcDbEntity
  8
0
100
AcDb2dPolyline
 66
     1
 70
     1
  0
VERTEX
  5
307
100
AcDbEntity
  8
0
100
AcDbVertex
100
AcDb2dVertex
 10
187.90000000
 20
0.25000000
 30
0.0
  0
VERTEX
  5
308
100
AcDbEntity
  8
0
100
AcDbVertex
100
AcDb2dVertex
 10
182.40000000
 20
0.25000000
 30
0.0
  0
SEQEND
  5
309
100
AcDbEntity
  8
0
  0
POLYLINE
  5
30A
100
AcDbEntity
  8
0
100
AcDb2dPolyline
 66
     1
 70
     1
  0
VERTEX
  5
30B
100
AcDbEntity
  8
0
100
AcDbVertex
100
AcDb2dVertex
 10
187.90000000
 20
-14.75000000
 30
0.0
  0
VERTEX
  5
30C
100
AcDbEntity
  8
0
100
AcDbVertex
100
AcDb2dVertex
 10
187.90000000
 20
0.25000000
 30
0.0
  0
SEQEND
  5
30D
100
AcDbEntity
  8
0
  0
POLYLINE
  5
30E
100
AcDbEntity
  8
0
100
AcDb2dPolyline
 66
     1
 70
     1
  0
VERTEX
  5
30F
100
AcDbEntity
  8
0
100
AcDbVertex
100
AcDb2dVertex
 10
-144.80000000
 20
-14.75000000
 30
0.0
  0
VERTEX
  5
310
100
AcDbEntity
  8
0
100
AcDbVertex
100
AcDb2dVertex
 10
187.90000000
 20
-14.75000000
 30
0.0
  0
SEQEND
  5
311
100
AcDbEntity
  8
0
  0
POLYLINE
  5
312
100
AcDbEntity
  8
0
100
AcDb2dPolyline
 66
     1
 70
     1
  0
VERTEX
  5
313
100
AcDbEntity
  8
0
100
AcDbVertex
100
AcDb2dVertex
 10
-144.80000000
 20
0.25000000
 30
0.0
  0
VERTEX
  5
314
100
AcDbEntity
  8
0
100
AcDbVertex
100
AcDb2dVertex
 10
-144.80000000
 20
-14.75000000
 30
0.0
  0
SEQEND
  5
315
100
AcDbEntity
  8
0
  0
POLYLINE
  5
316
100
AcDbEntity
  8
0
100
AcDb2dPolyline
 66
     1
 70
     1
  0
VERTEX
  5
317
100
AcDbEntity
  8
0
100
AcDbVertex
100
AcDb2dVertex
 10
-165.80000000
 20
0.25000000
 30
0.0
  0
VERTEX
  5
318
100
AcDbEntity
  8
0
100
AcDbVertex
100
AcDb2dVertex
 10
-144.80000000
 20
0.25000000
 30
0.0
  0
VERTEX
  5
319
100
AcDbEntity
  8
0
100
AcDbVertex
100
AcDb2dVertex
 10
-165.80000000
 20
0.25000000
 30
0.0
  0
VERTEX
  5
31A
100
AcDbEntity
  8
0
100
AcDbVertex
100
AcDb2dVertex
 10
-165.80000000
 20
7.95000000
 30
0.0
  0
SEQEND
  5
31B
100
AcDbEntity
  8
0
  0
POLYLINE
  5
31C
100
AcDbEntity
  8
0
100
AcDb2dPolyline
 66
     1
 70
     1
  0
VERTEX
  5
31D
100
AcDbEntity
  8
0
100
AcDbVertex
100
AcDb2dVertex
 10
-176.80000000
 20
7.95000000
 30
0.0
  0
VERTEX
  5
31E
100
AcDbEntity
  8
0
100
AcDbVertex
100
AcDb2dVertex
 10
-165.80000000
 20
7.95000000
 30
0.0
  0
SEQEND
  5
31F
100
AcDbEntity
  8
0
  0
POLYLINE
  5
320
100
AcDbEntity
  8
0
100
AcDb2dPolyline
 66
     1
 70
     1
  0
VERTEX
  5
321
100
AcDbEntity
  8
0
100
AcDbVertex
100
AcDb2dVertex
 10
-176.80000000
 20
11.25000000
 30
0.0
  0
VERTEX
  5
322
100
AcDbEntity
  8
0
100
AcDbVertex
100
AcDb2dVertex
 10
-176.80000000
 20
7.95000000
 30
0.0
  0
SEQEND
  5
323
100
AcDbEntity
  8
0
  0
POLYLINE
  5
324
100
AcDbEntity
  8
0
100
AcDb2dPolyline
 66
     1
 70
     1
  0
VERTEX
  5
325
100
AcDbEntity
  8
0
100
AcDbVertex
100
AcDb2dVertex
 10
-171.80000000
 20
11.25000000
 30
0.0
  0
VERTEX
  5
326
100
AcDbEntity
  8
0
100
AcDbVertex
100
AcDb2dVertex
 10
-176.80000000
 20
11.25000000
 30
0.0
  0
SEQEND
  5
327
100
AcDbEntity
  8
0
  0
LINE
  5
328
100
AcDbEntity
  8
0
100
AcDbLine
 10
-81.20000000
 20
12.75000000
 30
0.0
 11
-1.00000000
 21
12.75000000
 31
0.0
  0
POLYLINE
  5
329
100
AcDbEntity
  8
0
100
AcDb2dPolyline
 66
     1
  0
VERTEX
  5
32A
100
AcDbEntity
  8
0
100
AcDbVertex
100
AcDb2dVertex
 10
-81.20000000
 20
12.75000000
 30
0.0
  0
VERTEX
  5
32B
100
AcDbEntity
  8
0
100
AcDbVertex
100
AcDb2dVertex
 10
-81.20000000
 20
-12.75000000
 30
0.0
  0
VERTEX
  5
32C
100
AcDbEntity
  8
0
100
AcDbVertex
100
AcDb2dVertex
 10
-1.00000000
 20
-12.75000000
 30
0.0
  0
VERTEX
  5
32D
100
AcDbEntity
  8
0
100
AcDbVertex
100
AcDb2dVertex
 10
-1.00000000
 20
12.75000000
 30
0.0
  0
SEQEND
  5
32E
100
AcDbEntity
  8
0
  0
POLYLINE
  5
32F
100
AcDbEntity
  8
0
100
AcDb2dPolyline
 66
     1
 70
     1
  0
VERTEX
  5
330
100
AcDbEntity
  8
0
100
AcDbVertex
100
AcDb2dVertex
 10
81.20000000
 20
12.75000000
 30
0.0
  0
VERTEX
  5
331
100
AcDbEntity
  8
0
100
AcDbVertex
100
AcDb2dVertex
 10
1.00000000
 20
12.75000000
 30
0.0
  0
VERTEX
  5
332
100
AcDbEntity
  8
0
100
AcDbVertex
100
AcDb2dVertex
 10
1.00000000
 20
-12.75000000
 30
0.0
  0
VERTEX
  5
333
100
AcDbEntity
  8
0
100
AcDbVertex
100
AcDb2dVertex
 10
81.20000000
 20
-12.75000000
 30
0.0
  0
SEQEND
  5
334
100
AcDbEntity
  8
0
  0
LINE
  5
335
100
AcDbEntity
  8
0
100
AcDbLine
 10
152.90000000
 20
12.75000000
 30
0.0
 11
152.90000000
 21
-12.75000000
 31
0.0
  0
POLYLINE
  5
336
100
AcDbEntity
  8
0
100
AcDb2dPolyline
 66
     1
  0
VERTEX
  5
337
100
AcDbEntity
  8
0
100
AcDbVertex
100
AcDb2dVertex
 10
152.90000000
 20
12.75000000
 30
0.0
  0
VERTEX
  5
338
100
AcDbEntity
  8
0
100
AcDbVertex
100
AcDb2dVertex
 10
83.20000000
 20
12.75000000
 30
0.0
  0
VERTEX
  5
339
100
AcDbEntity
  8
0
100
AcDbVertex
100
AcDb2dVertex
 10
83.20000000
 20
-12.75000000
 30
0.0
  0
VERTEX
  5
33A
100
AcDbEntity
  8
0
100
AcDbVertex
100
AcDb2dVertex
 10
152.90000000
 20
-12.75000000
 30
0.0
  0
SEQEND
  5
33B
100
AcDbEntity
  8
0
  0
LINE
  5
33C
100
AcDbEntity
  8
0
100
AcDbLine
 10
-141.90000000
 20
-12.75000000
 30
0.0
 11
-141.90000000
 21
12.75000000
 31
0.0
  0
LINE
  5
33D
100
AcDbEntity
  8
0
100
AcDbLine
 10
-83.20000000
 20
-12.75000000
 30
0.0
 11
-141.90000000
 21
-12.75000000
 31
0.0
  0
LINE
  5
33E
100
AcDbEntity
  8
0
100
AcDbLine
 10
-83.20000000
 20
-12.75000000
 30
0.0
 11
-83.20000000
 21
12.75000000
 31
0.0
  0
LINE
  5
33F
100
AcDbEntity
  8
0
100
AcDbLine
 10
-141.90000000
 20
12.75000000
 30
0.0
 11
-83.20000000
 21
12.75000000
 31
0.0
  0
LINE
  5
340
100
AcDbEntity
  8
0
100
AcDbLine
 10
-1.00000000
 20
12.75000000
 30
0.0
 11
-81.20000000
 21
12.75000000
 31
0.0
  0
LINE
  5
341
100
AcDbEntity
  8
0
100
AcDbLine
 10
-81.20000000
 20
-12.75000000
 30
0.0
 11
-81.20000000
 21
12.75000000
 31
0.0
  0
LINE
  5
342
100
AcDbEntity
  8
0
100
AcDbLine
 10
-1.00000000
 20
-12.75000000
 30
0.0
 11
-81.20000000
 21
-12.75000000
 31
0.0
  0
LINE
  5
343
100
AcDbEntity
  8
0
100
AcDbLine
 10
-1.00000000
 20
12.75000000
 30
0.0
 11
-1.00000000
 21
-12.75000000
 31
0.0
  0
POLYLINE
  5
344
100
AcDbEntity
  8
0
100
AcDb2dPolyline
 66
     1
 70
     1
  0
VERTEX
  5
345
100
AcDbEntity
  8
0
100
AcDbVertex
100
AcDb2dVertex
 10
81.20000000
 20
12.75000000
 30
0.0
  0
VERTEX
  5
346
100
AcDbEntity
  8
0
100
AcDbVertex
100
AcDb2dVertex
 10
81.20000000
 20
-12.75000000
 30
0.0
  0
VERTEX
  5
347
100
AcDbEntity
  8
0
100
AcDbVertex
100
AcDb2dVertex
 10
1.00000000
 20
-12.75000000
 30
0.0
  0
VERTEX
  5
348
100
AcDbEntity
  8
0
100
AcDbVertex
100
AcDb2dVertex
 10
1.00000000
 20
12.75000000
 30
0.0
  0
SEQEND
  5
349
100
AcDbEntity
  8
0
  0
POLYLINE
  5
34A
100
AcDbEntity
  8
0
100
AcDb2dPolyline
 66
     1
  0
VERTEX
  5
34B
100
AcDbEntity
  8
0
100
AcDbVertex
100
AcDb2dVertex
 10
152.90000000
 20
-12.75000000
 30
0.0
  0
VERTEX
  5
34C
100
AcDbEntity
  8
0
100
AcDbVertex
100
AcDb2dVertex
 10
83.20000000
 20
-12.75000000
 30
0.0
  0
VERTEX
  5
34D
100
AcDbEntity
  8
0
100
AcDbVertex
100
AcDb2dVertex
 10
83.20000000
 20
12.75000000
 30
0.0
  0
VERTEX
  5
34E
100
AcDbEntity
  8
0
100
AcDbVertex
100
AcDb2dVertex
 10
152.90000000
 20
12.75000000
 30
0.0
  0
SEQEND
  5
34F
100
AcDbEntity
  8
0
  0
LINE
  5
350
100
AcDbEntity
  8
0
100
AcDbLine
 10
152.90000000
 20
-12.75000000
 30
0.0
 11
152.90000000
 21
12.75000000
 31
0.0
  0
LINE
  5
351
100
AcDbEntity
  8
0
100
AcDbLine
 10
-83.20000000
 20
12.75000000
 30
0.0
 11
-141.90000000
 21
12.75000000
 31
0.0
  0
LINE
  5
352
100
AcDbEntity
  8
0
100
AcDbLine
 10
-83.20000000
 20
12.75000000
 30
0.0
 11
-83.20000000
 21
-12.75000000
 31
0.0
  0
LINE
  5
353
100
AcDbEntity
  8
0
100
AcDbLine
 10
-141.90000000
 20
-12.75000000
 30
0.0
 11
-83.20000000
 21
-12.75000000
 31
0.0
  0
LINE
  5
354
100
AcDbEntity
  8
0
100
AcDbLine
 10
-141.90000000
 20
12.75000000
 30
0.0
 11
-141.90000000
 21
-12.75000000
 31
0.0
  0
POINT
  5
355
100
AcDbEntity
  8
0
100
AcDbPoint
 10
0.0
 20
0.0
 30
0.0
  0
POINT
  5
356
100
AcDbEntity
  8
0
100
AcDbPoint
 10
0.00000000
 20
-.00000000
 30
0.0
  0
ENDBLK
  5
357
100
AcDbEntity
  8
0
100
AcDbBlockEnd
  0
BLOCK
  5
358
100
AcDbEntity
  8
0
100
AcDbBlockBegin
  2
544609506_00020
 70
    64
 10
0.0
 20
0.0
 30
0.0
  3
544609506_00020
  0
INSERT
  5
359
100
AcDbEntity
  8
0
100
AcDbBlockReference
  2
_544609506_00021
 10
180.90000000
 20
17.75000000
 30
0.0
  0
ENDBLK
  5
35A
100
AcDbEntity
  8
0
100
AcDbBlockEnd
  0
BLOCK
  5
35B
100
AcDbEntity
  8
0
100
AcDbBlockBegin
  2
_544609506_00021
 70
    64
 10
180.90000000
 20
17.75000000
 30
0.0
  3
_544609506_00021
  0
POLYLINE
  5
35C
100
AcDbEntity
  8
0
100
AcDb2dPolyline
 66
     1
 70
     1
  0
VERTEX
  5
35D
100
AcDbEntity
  8
0
100
AcDbVertex
100
AcDb2dVertex
 10
180.90000000
 20
17.75000000
 30
0.0
  0
VERTEX
  5
35E
100
AcDbEntity
  8
0
100
AcDbVertex
100
AcDb2dVertex
 10
182.40000000
 20
17.75000000
 30
0.0
  0
VERTEX
  5
35F
100
AcDbEntity
  8
0
100
AcDbVertex
100
AcDb2dVertex
 10
180.90000000
 20
17.75000000
 30
0.0
  0
VERTEX
  5
360
100
AcDbEntity
  8
0
100
AcDbVertex
100
AcDb2dVertex
 10
180.90000000
 20
43.65000000
 30
0.0
  0
SEQEND
  5
361
100
AcDbEntity
  8
0
  0
POLYLINE
  5
362
100
AcDbEntity
  8
0
100
AcDb2dPolyline
 66
     1
 70
     1
  0
VERTEX
  5
363
100
AcDbEntity
  8
0
100
AcDbVertex
100
AcDb2dVertex
 10
168.90000000
 20
43.65000000
 30
0.0
  0
VERTEX
  5
364
100
AcDbEntity
  8
0
100
AcDbVertex
100
AcDb2dVertex
 10
180.90000000
 20
43.65000000
 30
0.0
  0
VERTEX
  5
365
100
AcDbEntity
  8
0
100
AcDbVertex
100
AcDb2dVertex
 10
168.90000000
 20
43.65000000
 30
0.0
  0
VERTEX
  5
366
100
AcDbEntity
  8
0
100
AcDbVertex
100
AcDb2dVertex
 10
168.90000000
 20
17.75000000
 30
0.0
  0
SEQEND
  5
367
100
AcDbEntity
  8
0
  0
POLYLINE
  5
368
100
AcDbEntity
  8
0
100
AcDb2dPolyline
 66
     1
 70
     1
  0
VERTEX
  5
369
100
AcDbEntity
  8
0
100
AcDbVertex
100
AcDb2dVertex
 10
166.90000000
 20
17.75000000
 30
0.0
  0
VERTEX
  5
36A
100
AcDbEntity
  8
0
100
AcDbVertex
100
AcDb2dVertex
 10
168.90000000
 20
17.75000000
 30
0.0
  0
VERTEX
  5
36B
100
AcDbEntity
  8
0
100
AcDbVertex
100
AcDb2dVertex
 10
166.90000000
 20
17.75000000
 30
0.0
  0
VERTEX
  5
36C
100
AcDbEntity
  8
0
100
AcDbVertex
100
AcDb2dVertex
 10
166.90000000
 20
37.95000000
 30
0.0
  0
SEQEND
  5
36D
100
AcDbEntity
  8
0
  0
POLYLINE
  5
36E
100
AcDbEntity
  8
0
100
AcDb2dPolyline
 66
     1
 70
     1
  0
VERTEX
  5
36F
100
AcDbEntity
  8
0
100
AcDbVertex
100
AcDb2dVertex
 10
166.90000000
 20
37.95000000
 30
0.0
  0
VERTEX
  5
370
100
AcDbEntity
  8
0
100
AcDbVertex
100
AcDb2dVertex
 10
160.90000000
 20
37.95000000
 30
0.0
  0
SEQEND
  5
371
100
AcDbEntity
  8
0
  0
POLYLINE
  5
372
100
AcDbEntity
  8
0
100
AcDb2dPolyline
 66
     1
 70
     1
  0
VERTEX
  5
373
100
AcDbEntity
  8
0
100
AcDbVertex
100
AcDb2dVertex
 10
160.90000000
 20
45.25000000
 30
0.0
  0
VERTEX
  5
374
100
AcDbEntity
  8
0
100
AcDbVertex
100
AcDb2dVertex
 10
160.90000000
 20
37.95000000
 30
0.0
  0
VERTEX
  5
375
100
AcDbEntity
  8
0
100
AcDbVertex
100
AcDb2dVertex
 10
160.90000000
 20
45.25000000
 30
0.0
  0
VERTEX
  5
376
100
AcDbEntity
  8
0
100
AcDbVertex
100
AcDb2dVertex
 10
187.90000000
 20
45.25000000
 30
0.0
  0
SEQEND
  5
377
100
AcDbEntity
  8
0
  0
POLYLINE
  5
378
100
AcDbEntity
  8
0
100
AcDb2dPolyline
 66
     1
 70
     1
  0
VERTEX
  5
379
100
AcDbEntity
  8
0
100
AcDbVertex
100
AcDb2dVertex
 10
187.90000000
 20
45.25000000
 30
0.0
  0
VERTEX
  5
37A
100
AcDbEntity
  8
0
100
AcDbVertex
100
AcDb2dVertex
 10
187.90000000
 20
30.25000000
 30
0.0
  0
SEQEND
  5
37B
100
AcDbEntity
  8
0
  0
POLYLINE
  5
37C
100
AcDbEntity
  8
0
100
AcDb2dPolyline
 66
     1
 70
     1
  0
VERTEX
  5
37D
100
AcDbEntity
  8
0
100
AcDbVertex
100
AcDb2dVertex
 10
187.90000000
 20
30.25000000
 30
0.0
  0
VERTEX
  5
37E
100
AcDbEntity
  8
0
100
AcDbVertex
100
AcDb2dVertex
 10
182.40000000
 20
30.25000000
 30
0.0
  0
SEQEND
  5
37F
100
AcDbEntity
  8
0
  0
POLYLINE
  5
380
100
AcDbEntity
  8
0
100
AcDb2dPolyline
 66
     1
 70
     1
  0
VERTEX
  5
381
100
AcDbEntity
  8
0
100
AcDbVertex
100
AcDb2dVertex
 10
182.40000000
 20
30.25000000
 30
0.0
  0
VERTEX
  5
382
100
AcDbEntity
  8
0
100
AcDbVertex
100
AcDb2dVertex
 10
182.40000000
 20
17.75000000
 30
0.0
  0
SEQEND
  5
383
100
AcDbEntity
  8
0
  0
POINT
  5
384
100
AcDbEntity
  8
0
100
AcDbPoint
 10
174.55000000
 20
30.25000000
 30
0.0
  0
POINT
  5
385
100
AcDbEntity
  8
0
100
AcDbPoint
 10
174.55000000
 20
30.25000000
 30
0.0
  0
ENDBLK
  5
386
100
AcDbEntity
  8
0
100
AcDbBlockEnd
  0
BLOCK
  5
387
100
AcDbEntity
  8
0
100
AcDbBlockBegin
  2
544609506_00022
 70
    64
 10
0.0
 20
0.0
 30
0.0
  3
544609506_00022
  0
INSERT
  5
388
100
AcDbEntity
  8
0
100
AcDbBlockReference
  2
_544609506_00023
 10
160.90000000
 20
165.25000000
 30
0.0
  0
ENDBLK
  5
389
100
AcDbEntity
  8
0
100
AcDbBlockEnd
  0
BLOCK
  5
38A
100
AcDbEntity
  8
0
100
AcDbBlockBegin
  2
_544609506_00023
 70
    64
 10
160.90000000
 20
165.25000000
 30
0.0
  3
_544609506_00023
  0
POLYLINE
  5
38B
100
AcDbEntity
  8
0
100
AcDb2dPolyline
 66
     1
 70
     1
  0
VERTEX
  5
38C
100
AcDbEntity
  8
0
100
AcDbVertex
100
AcDb2dVertex
 10
160.90000000
 20
165.25000000
 30
0.0
  0
VERTEX
  5
38D
100
AcDbEntity
  8
0
100
AcDbVertex
100
AcDb2dVertex
 10
185.90000000
 20
165.25000000
 30
0.0
  0
SEQEND
  5
38E
100
AcDbEntity
  8
0
  0
POLYLINE
  5
38F
100
AcDbEntity
  8
0
100
AcDb2dPolyline
 66
     1
 70
     1
  0
VERTEX
  5
390
100
AcDbEntity
  8
0
100
AcDbVertex
100
AcDb2dVertex
 10
185.90000000
 20
190.25000000
 30
0.0
  0
VERTEX
  5
391
100
AcDbEntity
  8
0
100
AcDbVertex
100
AcDb2dVertex
 10
185.90000000
 20
165.25000000
 30
0.0
  0
SEQEND
  5
392
100
AcDbEntity
  8
0
  0
POLYLINE
  5
393
100
AcDbEntity
  8
0
100
AcDb2dPolyline
 66
     1
 70
     1
  0
VERTEX
  5
394
100
AcDbEntity
  8
0
100
AcDbVertex
100
AcDb2dVertex
 10
187.90000000
 20
190.25000000
 30
0.0
  0
VERTEX
  5
395
100
AcDbEntity
  8
0
100
AcDbVertex
100
AcDb2dVertex
 10
185.90000000
 20
190.25000000
 30
0.0
  0
SEQEND
  5
396
100
AcDbEntity
  8
0
  0
POLYLINE
  5
397
100
AcDbEntity
  8
0
100
AcDb2dPolyline
 66
     1
 70
     1
  0
VERTEX
  5
398
100
AcDbEntity
  8
0
100
AcDbVertex
100
AcDb2dVertex
 10
187.90000000
 20
165.25000000
 30
0.0
  0
VERTEX
  5
399
100
AcDbEntity
  8
0
100
AcDbVertex
100
AcDb2dVertex
 10
187.90000000
 20
190.25000000
 30
0.0
  0
VERTEX
  5
39A
100
AcDbEntity
  8
0
100
AcDbVertex
100
AcDb2dVertex
 10
187.90000000
 20
165.25000000
 30
0.0
  0
VERTEX
  5
39B
100
AcDbEntity
  8
0
100
AcDbVertex
100
AcDb2dVertex
 10
187.90000000
 20
150.25000000
 30
0.0
  0
SEQEND
  5
39C
100
AcDbEntity
  8
0
  0
POLYLINE
  5
39D
100
AcDbEntity
  8
0
100
AcDb2dPolyline
 66
     1
 70
     1
  0
VERTEX
  5
39E
100
AcDbEntity
  8
0
100
AcDbVertex
100
AcDb2dVertex
 10
187.90000000
 20
150.25000000
 30
0.0
  0
VERTEX
  5
39F
100
AcDbEntity
  8
0
100
AcDbVertex
100
AcDb2dVertex
 10
182.40000000
 20
150.25000000
 30
0.0
  0
SEQEND
  5
3A0
100
AcDbEntity
  8
0
  0
POLYLINE
  5
3A1
100
AcDbEntity
  8
0
100
AcDb2dPolyline
 66
     1
 70
     1
  0
VERTEX
  5
3A2
100
AcDbEntity
  8
0
100
AcDbVertex
100
AcDb2dVertex
 10
182.40000000
 20
150.25000000
 30
0.0
  0
VERTEX
  5
3A3
100
AcDbEntity
  8
0
100
AcDbVertex
100
AcDb2dVertex
 10
182.40000000
 20
137.75000000
 30
0.0
  0
SEQEND
  5
3A4
100
AcDbEntity
  8
0
  0
POLYLINE
  5
3A5
100
AcDbEntity
  8
0
100
AcDb2dPolyline
 66
     1
 70
     1
  0
VERTEX
  5
3A6
100
AcDbEntity
  8
0
100
AcDbVertex
100
AcDb2dVertex
 10
180.90000000
 20
137.75000000
 30
0.0
  0
VERTEX
  5
3A7
100
AcDbEntity
  8
0
100
AcDbVertex
100
AcDb2dVertex
 10
182.40000000
 20
137.75000000
 30
0.0
  0
VERTEX
  5
3A8
100
AcDbEntity
  8
0
100
AcDbVertex
100
AcDb2dVertex
 10
180.90000000
 20
137.75000000
 30
0.0
  0
VERTEX
  5
3A9
100
AcDbEntity
  8
0
100
AcDbVertex
100
AcDb2dVertex
 10
180.90000000
 20
163.65000000
 30
0.0
  0
SEQEND
  5
3AA
100
AcDbEntity
  8
0
  0
POLYLINE
  5
3AB
100
AcDbEntity
  8
0
100
AcDb2dPolyline
 66
     1
 70
     1
  0
VERTEX
  5
3AC
100
AcDbEntity
  8
0
100
AcDbVertex
100
AcDb2dVertex
 10
168.90000000
 20
163.65000000
 30
0.0
  0
VERTEX
  5
3AD
100
AcDbEntity
  8
0
100
AcDbVertex
100
AcDb2dVertex
 10
180.90000000
 20
163.65000000
 30
0.0
  0
VERTEX
  5
3AE
100
AcDbEntity
  8
0
100
AcDbVertex
100
AcDb2dVertex
 10
168.90000000
 20
163.65000000
 30
0.0
  0
VERTEX
  5
3AF
100
AcDbEntity
  8
0
100
AcDbVertex
100
AcDb2dVertex
 10
168.90000000
 20
137.75000000
 30
0.0
  0
SEQEND
  5
3B0
100
AcDbEntity
  8
0
  0
POLYLINE
  5
3B1
100
AcDbEntity
  8
0
100
AcDb2dPolyline
 66
     1
 70
     1
  0
VERTEX
  5
3B2
100
AcDbEntity
  8
0
100
AcDbVertex
100
AcDb2dVertex
 10
166.90000000
 20
137.75000000
 30
0.0
  0
VERTEX
  5
3B3
100
AcDbEntity
  8
0
100
AcDbVertex
100
AcDb2dVertex
 10
168.90000000
 20
137.75000000
 30
0.0
  0
VERTEX
  5
3B4
100
AcDbEntity
  8
0
100
AcDbVertex
100
AcDb2dVertex
 10
166.90000000
 20
137.75000000
 30
0.0
  0
VERTEX
  5
3B5
100
AcDbEntity
  8
0
100
AcDbVertex
100
AcDb2dVertex
 10
166.90000000
 20
157.95000000
 30
0.0
  0
SEQEND
  5
3B6
100
AcDbEntity
  8
0
  0
POLYLINE
  5
3B7
100
AcDbEntity
  8
0
100
AcDb2dPolyline
 66
     1
 70
     1
  0
VERTEX
  5
3B8
100
AcDbEntity
  8
0
100
AcDbVertex
100
AcDb2dVertex
 10
166.90000000
 20
157.95000000
 30
0.0
  0
VERTEX
  5
3B9
100
AcDbEntity
  8
0
100
AcDbVertex
100
AcDb2dVertex
 10
160.90000000
 20
157.95000000
 30
0.0
  0
SEQEND
  5
3BA
100
AcDbEntity
  8
0
  0
POLYLINE
  5
3BB
100
AcDbEntity
  8
0
100
AcDb2dPolyline
 66
     1
 70
     1
  0
VERTEX
  5
3BC
100
AcDbEntity
  8
0
100
AcDbVertex
100
AcDb2dVertex
 10
160.90000000
 20
165.25000000
 30
0.0
  0
VERTEX
  5
3BD
100
AcDbEntity
  8
0
100
AcDbVertex
100
AcDb2dVertex
 10
160.90000000
 20
157.95000000
 30
0.0
  0
SEQEND
  5
3BE
100
AcDbEntity
  8
0
  0
POINT
  5
3BF
100
AcDbEntity
  8
0
100
AcDbPoint
 10
174.55000000
 20
150.25000000
 30
0.0
  0
POINT
  5
3C0
100
AcDbEntity
  8
0
100
AcDbPoint
 10
174.55000000
 20
150.25000000
 30
0.0
  0
ENDBLK
  5
3C1
100
AcDbEntity
  8
0
100
AcDbBlockEnd
  0
BLOCK
  5
3C2
100
AcDbEntity
  8
0
100
AcDbBlockBegin
  2
SOCKELLEISTENHALTER_00024
 70
    64
 10
0.0
 20
0.0
 30
0.0
  3
SOCKELLEISTENHALTER_00024
  0
INSERT
  5
3C3
100
AcDbEntity
  8
0
100
AcDbBlockReference
  2
_SOCKELLEISTENHALTER_00025
 10
-304.25042421
 20
42.23605711
 30
0.0
  0
ENDBLK
  5
3C4
100
AcDbEntity
  8
0
100
AcDbBlockEnd
  0
BLOCK
  5
3C5
100
AcDbEntity
  8
0
100
AcDbBlockBegin
  2
_SOCKELLEISTENHALTER_00025
 70
    64
 10
-304.25042421
 20
42.23605711
 30
0.0
  3
_SOCKELLEISTENHALTER_00025
  0
POLYLINE
  5
3C6
100
AcDbEntity
  8
0
100
AcDb2dPolyline
 66
     1
 70
     1
  0
VERTEX
  5
3C7
100
AcDbEntity
  8
0
100
AcDbVertex
100
AcDb2dVertex
 10
-304.25042421
 20
42.23605711
 30
0.0
  0
VERTEX
  5
3C8
100
AcDbEntity
  8
0
100
AcDbVertex
100
AcDb2dVertex
 10
-304.25042421
 20
34.25000000
 30
0.0
  0
VERTEX
  5
3C9
100
AcDbEntity
  8
0
100
AcDbVertex
100
AcDb2dVertex
 10
-304.25042421
 20
42.23605711
 30
0.0
  0
VERTEX
  5
3CA
100
AcDbEntity
  8
0
100
AcDbVertex
100
AcDb2dVertex
 10
-301.40042421
 20
42.23605711
 30
0.0
  0
SEQEND
  5
3CB
100
AcDbEntity
  8
0
  0
POLYLINE
  5
3CC
100
AcDbEntity
  8
0
100
AcDb2dPolyline
 66
     1
 70
     1
  0
VERTEX
  5
3CD
100
AcDbEntity
  8
0
100
AcDbVertex
100
AcDb2dVertex
 10
-301.40042421
 20
32.25000000
 30
0.0
  0
VERTEX
  5
3CE
100
AcDbEntity
  8
0
100
AcDbVertex
100
AcDb2dVertex
 10
-301.40042421
 20
42.23605711
 30
0.0
  0
VERTEX
  5
3CF
100
AcDbEntity
  8
0
100
AcDbVertex
100
AcDb2dVertex
 10
-301.40042421
 20
32.25000000
 30
0.0
  0
VERTEX
  5
3D0
100
AcDbEntity
  8
0
100
AcDbVertex
100
AcDb2dVertex
 10
-306.90042421
 20
32.25000000
 30
0.0
  0
SEQEND
  5
3D1
100
AcDbEntity
  8
0
  0
POLYLINE
  5
3D2
100
AcDbEntity
  8
0
100
AcDb2dPolyline
 66
     1
 70
     1
  0
VERTEX
  5
3D3
100
AcDbEntity
  8
0
100
AcDbVertex
100
AcDb2dVertex
 10
-306.90042421
 20
32.25000000
 30
0.0
  0
VERTEX
  5
3D4
100
AcDbEntity
  8
0
100
AcDbVertex
100
AcDb2dVertex
 10
-306.90042421
 20
17.25000000
 30
0.0
  0
SEQEND
  5
3D5
100
AcDbEntity
  8
0
  0
POLYLINE
  5
3D6
100
AcDbEntity
  8
0
100
AcDb2dPolyline
 66
     1
 70
     1
  0
VERTEX
  5
3D7
100
AcDbEntity
  8
0
100
AcDbVertex
100
AcDb2dVertex
 10
-306.90042421
 20
17.25000000
 30
0.0
  0
VERTEX
  5
3D8
100
AcDbEntity
  8
0
100
AcDbVertex
100
AcDb2dVertex
 10
-301.40042421
 20
17.25000000
 30
0.0
  0
SEQEND
  5
3D9
100
AcDbEntity
  8
0
  0
POLYLINE
  5
3DA
100
AcDbEntity
  8
0
100
AcDb2dPolyline
 66
     1
 70
     1
  0
VERTEX
  5
3DB
100
AcDbEntity
  8
0
100
AcDbVertex
100
AcDb2dVertex
 10
-301.40042421
 20
15.25000000
 30
0.0
  0
VERTEX
  5
3DC
100
AcDbEntity
  8
0
100
AcDbVertex
100
AcDb2dVertex
 10
-301.40042421
 20
17.25000000
 30
0.0
  0
VERTEX
  5
3DD
100
AcDbEntity
  8
0
100
AcDbVertex
100
AcDb2dVertex
 10
-301.40042421
 20
15.25000000
 30
0.0
  0
VERTEX
  5
3DE
100
AcDbEntity
  8
0
100
AcDbVertex
100
AcDb2dVertex
 10
-308.90042421
 20
15.25000000
 30
0.0
  0
SEQEND
  5
3DF
100
AcDbEntity
  8
0
  0
POLYLINE
  5
3E0
100
AcDbEntity
  8
0
100
AcDb2dPolyline
 66
     1
 70
     1
  0
VERTEX
  5
3E1
100
AcDbEntity
  8
0
100
AcDbVertex
100
AcDb2dVertex
 10
-308.90042421
 20
15.25000000
 30
0.0
  0
VERTEX
  5
3E2
100
AcDbEntity
  8
0
100
AcDbVertex
100
AcDb2dVertex
 10
-308.90042421
 20
34.25000000
 30
0.0
  0
SEQEND
  5
3E3
100
AcDbEntity
  8
0
  0
POLYLINE
  5
3E4
100
AcDbEntity
  8
0
100
AcDb2dPolyline
 66
     1
 70
     1
  0
VERTEX
  5
3E5
100
AcDbEntity
  8
0
100
AcDbVertex
100
AcDb2dVertex
 10
-308.90042421
 20
34.25000000
 30
0.0
  0
VERTEX
  5
3E6
100
AcDbEntity
  8
0
100
AcDbVertex
100
AcDb2dVertex
 10
-304.25042421
 20
34.25000000
 30
0.0
  0
SEQEND
  5
3E7
100
AcDbEntity
  8
0
  0
ENDBLK
  5
3E8
100
AcDbEntity
  8
0
100
AcDbBlockEnd
  0
BLOCK
  5
3E9
100
AcDbEntity
  8
0
100
AcDbBlockBegin
  2
544616151_00026
 70
    64
 10
0.0
 20
0.0
 30
0.0
  3
544616151_00026
  0
INSERT
  5
3EA
100
AcDbEntity
  8
0
100
AcDbBlockReference
  2
_544616151_00027
 10
-281.40042421
 20
45.75000000
 30
0.0
  0
ENDBLK
  5
3EB
100
AcDbEntity
  8
0
100
AcDbBlockEnd
  0
BLOCK
  5
3EC
100
AcDbEntity
  8
0
100
AcDbBlockBegin
  2
_544616151_00027
 70
    64
 10
-281.40042421
 20
45.75000000
 30
0.0
  3
_544616151_00027
  0
POLYLINE
  5
3ED
100
AcDbEntity
  8
0
100
AcDb2dPolyline
 66
     1
 70
     1
  0
VERTEX
  5
3EE
100
AcDbEntity
  8
0
100
AcDbVertex
100
AcDb2dVertex
 10
-281.40042421
 20
45.75000000
 30
0.0
  0
VERTEX
  5
3EF
100
AcDbEntity
  8
0
100
AcDbVertex
100
AcDb2dVertex
 10
-284.25042421
 20
45.75000000
 30
0.0
  0
SEQEND
  5
3F0
100
AcDbEntity
  8
0
  0
POLYLINE
  5
3F1
100
AcDbEntity
  8
0
100
AcDb2dPolyline
 66
     1
 70
     1
  0
VERTEX
  5
3F2
100
AcDbEntity
  8
0
100
AcDbVertex
100
AcDb2dVertex
 10
-284.25042421
 20
45.75000000
 30
0.0
  0
VERTEX
  5
3F3
100
AcDbEntity
  8
0
100
AcDbVertex
100
AcDb2dVertex
 10
-284.25042421
 20
34.25000000
 30
0.0
  0
SEQEND
  5
3F4
100
AcDbEntity
  8
0
  0
POLYLINE
  5
3F5
100
AcDbEntity
  8
0
100
AcDb2dPolyline
 66
     1
 70
     1
  0
VERTEX
  5
3F6
100
AcDbEntity
  8
0
100
AcDbVertex
100
AcDb2dVertex
 10
-284.25042421
 20
34.25000000
 30
0.0
  0
VERTEX
  5
3F7
100
AcDbEntity
  8
0
100
AcDbVertex
100
AcDb2dVertex
 10
-285.45042421
 20
34.25000000
 30
0.0
  0
SEQEND
  5
3F8
100
AcDbEntity
  8
0
  0
POLYLINE
  5
3F9
100
AcDbEntity
  8
0
100
AcDb2dPolyline
 66
     1
 70
     1
  0
VERTEX
  5
3FA
100
AcDbEntity
  8
0
100
AcDbVertex
100
AcDb2dVertex
 10
-285.45042421
 20
62.75000000
 30
0.0
  0
VERTEX
  5
3FB
100
AcDbEntity
  8
0
100
AcDbVertex
100
AcDb2dVertex
 10
-285.45042421
 20
34.25000000
 30
0.0
  0
SEQEND
  5
3FC
100
AcDbEntity
  8
0
  0
POLYLINE
  5
3FD
100
AcDbEntity
  8
0
100
AcDb2dPolyline
 66
     1
 70
     1
  0
VERTEX
  5
3FE
100
AcDbEntity
  8
0
100
AcDbVertex
100
AcDb2dVertex
 10
-288.75042421
 20
62.75000000
 30
0.0
  0
VERTEX
  5
3FF
100
AcDbEntity
  8
0
100
AcDbVertex
100
AcDb2dVertex
 10
-285.45042421
 20
62.75000000
 30
0.0
  0
SEQEND
  5
400
100
AcDbEntity
  8
0
  0
POLYLINE
  5
401
100
AcDbEntity
  8
0
100
AcDb2dPolyline
 66
     1
 70
     1
  0
VERTEX
  5
402
100
AcDbEntity
  8
0
100
AcDbVertex
100
AcDb2dVertex
 10
-288.75042421
 20
64.25000000
 30
0.0
  0
VERTEX
  5
403
100
AcDbEntity
  8
0
100
AcDbVertex
100
AcDb2dVertex
 10
-288.75042421
 20
62.75000000
 30
0.0
  0
SEQEND
  5
404
100
AcDbEntity
  8
0
  0
POLYLINE
  5
405
100
AcDbEntity
  8
0
100
AcDb2dPolyline
 66
     1
 70
     1
  0
VERTEX
  5
406
100
AcDbEntity
  8
0
100
AcDbVertex
100
AcDb2dVertex
 10
-276.75042421
 20
64.25000000
 30
0.0
  0
VERTEX
  5
407
100
AcDbEntity
  8
0
100
AcDbVertex
100
AcDb2dVertex
 10
-288.75042421
 20
64.25000000
 30
0.0
  0
SEQEND
  5
408
100
AcDbEntity
  8
0
  0
POLYLINE
  5
409
100
AcDbEntity
  8
0
100
AcDb2dPolyline
 66
     1
 70
     1
  0
VERTEX
  5
40A
100
AcDbEntity
  8
0
100
AcDbVertex
100
AcDb2dVertex
 10
-264.19270471
 20
15.25000000
 30
0.0
  0
VERTEX
  5
40B
100
AcDbEntity
  8
0
100
AcDbVertex
100
AcDb2dVertex
 10
-276.75042421
 20
64.25000000
 30
0.0
  0
VERTEX
  5
40C
100
AcDbEntity
  8
0
100
AcDbVertex
100
AcDb2dVertex
 10
-264.19270471
 20
15.25000000
 30
0.0
  0
VERTEX
  5
40D
100
AcDbEntity
  8
0
100
AcDbVertex
100
AcDb2dVertex
 10
-266.70042421
 20
15.25000000
 30
0.0
  0
SEQEND
  5
40E
100
AcDbEntity
  8
0
  0
POLYLINE
  5
40F
100
AcDbEntity
  8
0
100
AcDb2dPolyline
 66
     1
 70
     1
  0
VERTEX
  5
410
100
AcDbEntity
  8
0
100
AcDbVertex
100
AcDb2dVertex
 10
-266.70042421
 20
15.25000000
 30
0.0
  0
VERTEX
  5
411
100
AcDbEntity
  8
0
100
AcDbVertex
100
AcDb2dVertex
 10
-266.70042421
 20
18.55000000
 30
0.0
  0
SEQEND
  5
412
100
AcDbEntity
  8
0
  0
POLYLINE
  5
413
100
AcDbEntity
  8
0
100
AcDb2dPolyline
 66
     1
 70
     1
  0
VERTEX
  5
414
100
AcDbEntity
  8
0
100
AcDbVertex
100
AcDb2dVertex
 10
-266.70042421
 20
18.55000000
 30
0.0
  0
VERTEX
  5
415
100
AcDbEntity
  8
0
100
AcDbVertex
100
AcDb2dVertex
 10
-276.70042421
 20
18.55000000
 30
0.0
  0
SEQEND
  5
416
100
AcDbEntity
  8
0
  0
POLYLINE
  5
417
100
AcDbEntity
  8
0
100
AcDb2dPolyline
 66
     1
 70
     1
  0
VERTEX
  5
418
100
AcDbEntity
  8
0
100
AcDbVertex
100
AcDb2dVertex
 10
-276.70042421
 20
18.55000000
 30
0.0
  0
VERTEX
  5
419
100
AcDbEntity
  8
0
100
AcDbVertex
100
AcDb2dVertex
 10
-276.70042421
 20
15.25000000
 30
0.0
  0
SEQEND
  5
41A
100
AcDbEntity
  8
0
  0
POLYLINE
  5
41B
100
AcDbEntity
  8
0
100
AcDb2dPolyline
 66
     1
 70
     1
  0
VERTEX
  5
41C
100
AcDbEntity
  8
0
100
AcDbVertex
100
AcDb2dVertex
 10
-276.70042421
 20
15.25000000
 30
0.0
  0
VERTEX
  5
41D
100
AcDbEntity
  8
0
100
AcDbVertex
100
AcDb2dVertex
 10
-281.40042421
 20
15.25000000
 30
0.0
  0
SEQEND
  5
41E
100
AcDbEntity
  8
0
  0
POLYLINE
  5
41F
100
AcDbEntity
  8
0
100
AcDb2dPolyline
 66
     1
 70
     1
  0
VERTEX
  5
420
100
AcDbEntity
  8
0
100
AcDbVertex
100
AcDb2dVertex
 10
-281.40042421
 20
15.25000000
 30
0.0
  0
VERTEX
  5
421
100
AcDbEntity
  8
0
100
AcDbVertex
100
AcDb2dVertex
 10
-281.40042421
 20
45.75000000
 30
0.0
  0
SEQEND
  5
422
100
AcDbEntity
  8
0
  0
LINE
  5
423
100
AcDbEntity
  8
0
100
AcDbLine
 10
-278.20042421
 20
34.35000000
 30
0.0
 11
-270.63612877
 21
34.35000000
 31
0.0
  0
POLYLINE
  5
424
100
AcDbEntity
  8
0
100
AcDb2dPolyline
 66
     1
  0
VERTEX
  5
425
100
AcDbEntity
  8
0
100
AcDbVertex
100
AcDb2dVertex
 10
-278.20042421
 20
34.35000000
 30
0.0
  0
VERTEX
  5
426
100
AcDbEntity
  8
0
100
AcDbVertex
100
AcDb2dVertex
 10
-278.20042421
 20
37.75000000
 30
0.0
  0
VERTEX
  5
427
100
AcDbEntity
  8
0
100
AcDbVertex
100
AcDb2dVertex
 10
-279.90042421
 20
37.75000000
 30
0.0
  0
VERTEX
  5
428
100
AcDbEntity
  8
0
100
AcDbVertex
100
AcDb2dVertex
 10
-279.90042421
 20
16.75000000
 30
0.0
  0
VERTEX
  5
429
100
AcDbEntity
  8
0
100
AcDbVertex
100
AcDb2dVertex
 10
-278.20042421
 20
16.75000000
 30
0.0
  0
SEQEND
  5
42A
100
AcDbEntity
  8
0
  0
LINE
  5
42B
100
AcDbEntity
  8
0
100
AcDbLine
 10
-278.20042421
 20
20.15000000
 30
0.0
 11
-278.20042421
 21
16.75000000
 31
0.0
  0
LINE
  5
42C
100
AcDbEntity
  8
0
100
AcDbLine
 10
-266.99695292
 20
20.15000000
 30
0.0
 11
-278.20042421
 21
20.15000000
 31
0.0
  0
POLYLINE
  5
42D
100
AcDbEntity
  8
0
100
AcDb2dPolyline
 66
     1
  0
VERTEX
  5
42E
100
AcDbEntity
  8
0
100
AcDbVertex
100
AcDb2dVertex
 10
-266.99695292
 20
20.15000000
 30
0.0
  0
VERTEX
  5
42F
100
AcDbEntity
  8
0
100
AcDbVertex
100
AcDb2dVertex
 10
-270.63612877
 20
34.35000000
 30
0.0
  0
VERTEX
  5
430
100
AcDbEntity
  8
0
100
AcDbVertex
100
AcDb2dVertex
 10
-278.20042421
 20
34.35000000
 30
0.0
  0
SEQEND
  5
431
100
AcDbEntity
  8
0
  0
LINE
  5
432
100
AcDbEntity
  8
0
100
AcDbLine
 10
-278.20042421
 20
37.75000000
 30
0.0
 11
-278.20042421
 21
34.35000000
 31
0.0
  0
LINE
  5
433
100
AcDbEntity
  8
0
100
AcDbLine
 10
-279.90042421
 20
37.75000000
 30
0.0
 11
-278.20042421
 21
37.75000000
 31
0.0
  0
LINE
  5
434
100
AcDbEntity
  8
0
100
AcDbLine
 10
-279.90042421
 20
16.75000000
 30
0.0
 11
-279.90042421
 21
37.75000000
 31
0.0
  0
LINE
  5
435
100
AcDbEntity
  8
0
100
AcDbLine
 10
-278.20042421
 20
16.75000000
 30
0.0
 11
-279.90042421
 21
16.75000000
 31
0.0
  0
POLYLINE
  5
436
100
AcDbEntity
  8
0
100
AcDb2dPolyline
 66
     1
  0
VERTEX
  5
437
100
AcDbEntity
  8
0
100
AcDbVertex
100
AcDb2dVertex
 10
-278.20042421
 20
16.75000000
 30
0.0
  0
VERTEX
  5
438
100
AcDbEntity
  8
0
100
AcDbVertex
100
AcDb2dVertex
 10
-278.20042421
 20
20.15000000
 30
0.0
  0
VERTEX
  5
439
100
AcDbEntity
  8
0
100
AcDbVertex
100
AcDb2dVertex
 10
-266.99695292
 20
20.15000000
 30
0.0
  0
SEQEND
  5
43A
100
AcDbEntity
  8
0
  0
LINE
  5
43B
100
AcDbEntity
  8
0
100
AcDbLine
 10
-270.63612877
 20
34.35000000
 30
0.0
 11
-266.99695292
 21
20.15000000
 31
0.0
  0
POINT
  5
43C
100
AcDbEntity
  8
0
100
AcDbPoint
 10
-276.50042421
 20
39.75000000
 30
0.0
  0
POINT
  5
43D
100
AcDbEntity
  8
0
100
AcDbPoint
 10
-276.50042421
 20
39.75000000
 30
0.0
  0
ENDBLK
  5
43E
100
AcDbEntity
  8
0
100
AcDbBlockEnd
  0
BLOCK
  5
43F
100
AcDbEntity
  8
0
100
AcDbBlockBegin
  2
544614108_00028
 70
    64
 10
0.0
 20
0.0
 30
0.0
  3
544614108_00028
  0
INSERT
  5
440
100
AcDbEntity
  8
0
100
AcDbBlockReference
  2
_544614108_00029
 10
237.90000000
 20
-10.25000000
 30
0.0
  0
ENDBLK
  5
441
100
AcDbEntity
  8
0
100
AcDbBlockEnd
  0
BLOCK
  5
442
100
AcDbEntity
  8
0
100
AcDbBlockBegin
  2
_544614108_00029
 70
    64
 10
237.90000000
 20
-10.25000000
 30
0.0
  3
_544614108_00029
  0
POLYLINE
  5
443
100
AcDbEntity
  8
0
100
AcDb2dPolyline
 66
     1
 70
     1
  0
VERTEX
  5
444
100
AcDbEntity
  8
0
100
AcDbVertex
100
AcDb2dVertex
 10
237.90000000
 20
-10.25000000
 30
0.0
  0
VERTEX
  5
445
100
AcDbEntity
  8
0
100
AcDbVertex
100
AcDb2dVertex
 10
260.40000000
 20
-10.25000000
 30
0.0
  0
SEQEND
  5
446
100
AcDbEntity
  8
0
  0
POLYLINE
  5
447
100
AcDbEntity
  8
0
100
AcDb2dPolyline
 66
     1
 70
     1
  0
VERTEX
  5
448
100
AcDbEntity
  8
0
100
AcDbVertex
100
AcDb2dVertex
 10
260.40000000
 20
-10.25000000
 30
0.0
  0
VERTEX
  5
449
100
AcDbEntity
  8
0
100
AcDbVertex
100
AcDb2dVertex
 10
260.40000000
 20
10.25000000
 30
0.0
  0
SEQEND
  5
44A
100
AcDbEntity
  8
0
  0
POLYLINE
  5
44B
100
AcDbEntity
  8
0
100
AcDb2dPolyline
 66
     1
 70
     1
  0
VERTEX
  5
44C
100
AcDbEntity
  8
0
100
AcDbVertex
100
AcDb2dVertex
 10
260.40000000
 20
10.25000000
 30
0.0
  0
VERTEX
  5
44D
100
AcDbEntity
  8
0
100
AcDbVertex
100
AcDb2dVertex
 10
237.90000000
 20
10.25000000
 30
0.0
  0
SEQEND
  5
44E
100
AcDbEntity
  8
0
  0
POLYLINE
  5
44F
100
AcDbEntity
  8
0
100
AcDb2dPolyline
 66
     1
 70
     1
  0
VERTEX
  5
450
100
AcDbEntity
  8
0
100
AcDbVertex
100
AcDb2dVertex
 10
237.90000000
 20
10.25000000
 30
0.0
  0
VERTEX
  5
451
100
AcDbEntity
  8
0
100
AcDbVertex
100
AcDb2dVertex
 10
237.90000000
 20
12.25000000
 30
0.0
  0
SEQEND
  5
452
100
AcDbEntity
  8
0
  0
POLYLINE
  5
453
100
AcDbEntity
  8
0
100
AcDb2dPolyline
 66
     1
 70
     1
  0
VERTEX
  5
454
100
AcDbEntity
  8
0
100
AcDbVertex
100
AcDb2dVertex
 10
237.90000000
 20
12.25000000
 30
0.0
  0
VERTEX
  5
455
100
AcDbEntity
  8
0
100
AcDbVertex
100
AcDb2dVertex
 10
262.90000000
 20
12.25000000
 30
0.0
  0
SEQEND
  5
456
100
AcDbEntity
  8
0
  0
POLYLINE
  5
457
100
AcDbEntity
  8
0
100
AcDb2dPolyline
 66
     1
 70
     1
  0
VERTEX
  5
458
100
AcDbEntity
  8
0
100
AcDbVertex
100
AcDb2dVertex
 10
262.90000000
 20
12.25000000
 30
0.0
  0
VERTEX
  5
459
100
AcDbEntity
  8
0
100
AcDbVertex
100
AcDb2dVertex
 10
262.90000000
 20
7.95000000
 30
0.0
  0
SEQEND
  5
45A
100
AcDbEntity
  8
0
  0
POLYLINE
  5
45B
100
AcDbEntity
  8
0
100
AcDb2dPolyline
 66
     1
 70
     1
  0
VERTEX
  5
45C
100
AcDbEntity
  8
0
100
AcDbVertex
100
AcDb2dVertex
 10
262.90000000
 20
7.95000000
 30
0.0
  0
VERTEX
  5
45D
100
AcDbEntity
  8
0
100
AcDbVertex
100
AcDb2dVertex
 10
273.90000000
 20
7.95000000
 30
0.0
  0
SEQEND
  5
45E
100
AcDbEntity
  8
0
  0
POLYLINE
  5
45F
100
AcDbEntity
  8
0
100
AcDb2dPolyline
 66
     1
 70
     1
  0
VERTEX
  5
460
100
AcDbEntity
  8
0
100
AcDbVertex
100
AcDb2dVertex
 10
273.90000000
 20
-12.25000000
 30
0.0
  0
VERTEX
  5
461
100
AcDbEntity
  8
0
100
AcDbVertex
100
AcDb2dVertex
 10
273.90000000
 20
7.95000000
 30
0.0
  0
VERTEX
  5
462
100
AcDbEntity
  8
0
100
AcDbVertex
100
AcDb2dVertex
 10
273.90000000
 20
-12.25000000
 30
0.0
  0
VERTEX
  5
463
100
AcDbEntity
  8
0
100
AcDbVertex
100
AcDb2dVertex
 10
289.40000000
 20
-12.25000000
 30
0.0
  0
SEQEND
  5
464
100
AcDbEntity
  8
0
  0
POLYLINE
  5
465
100
AcDbEntity
  8
0
100
AcDb2dPolyline
 66
     1
 70
     1
  0
VERTEX
  5
466
100
AcDbEntity
  8
0
100
AcDbVertex
100
AcDb2dVertex
 10
289.40000000
 20
0.25000000
 30
0.0
  0
VERTEX
  5
467
100
AcDbEntity
  8
0
100
AcDbVertex
100
AcDb2dVertex
 10
289.40000000
 20
-12.25000000
 30
0.0
  0
SEQEND
  5
468
100
AcDbEntity
  8
0
  0
POLYLINE
  5
469
100
AcDbEntity
  8
0
100
AcDb2dPolyline
 66
     1
 70
     1
  0
VERTEX
  5
46A
100
AcDbEntity
  8
0
100
AcDbVertex
100
AcDb2dVertex
 10
294.90000000
 20
0.25000000
 30
0.0
  0
VERTEX
  5
46B
100
AcDbEntity
  8
0
100
AcDbVertex
100
AcDb2dVertex
 10
289.40000000
 20
0.25000000
 30
0.0
  0
VERTEX
  5
46C
100
AcDbEntity
  8
0
100
AcDbVertex
100
AcDb2dVertex
 10
294.90000000
 20
0.25000000
 30
0.0
  0
VERTEX
  5
46D
100
AcDbEntity
  8
0
100
AcDbVertex
100
AcDb2dVertex
 10
294.90000000
 20
-14.75000000
 30
0.0
  0
SEQEND
  5
46E
100
AcDbEntity
  8
0
  0
POLYLINE
  5
46F
100
AcDbEntity
  8
0
100
AcDb2dPolyline
 66
     1
 70
     1
  0
VERTEX
  5
470
100
AcDbEntity
  8
0
100
AcDbVertex
100
AcDb2dVertex
 10
294.90000000
 20
-14.75000000
 30
0.0
  0
VERTEX
  5
471
100
AcDbEntity
  8
0
100
AcDbVertex
100
AcDb2dVertex
 10
267.90000000
 20
-14.75000000
 30
0.0
  0
SEQEND
  5
472
100
AcDbEntity
  8
0
  0
POLYLINE
  5
473
100
AcDbEntity
  8
0
100
AcDb2dPolyline
 66
     1
 70
     1
  0
VERTEX
  5
474
100
AcDbEntity
  8
0
100
AcDbVertex
100
AcDb2dVertex
 10
267.90000000
 20
-12.25000000
 30
0.0
  0
VERTEX
  5
475
100
AcDbEntity
  8
0
100
AcDbVertex
100
AcDb2dVertex
 10
267.90000000
 20
-14.75000000
 30
0.0
  0
SEQEND
  5
476
100
AcDbEntity
  8
0
  0
POLYLINE
  5
477
100
AcDbEntity
  8
0
100
AcDb2dPolyline
 66
     1
 70
     1
  0
VERTEX
  5
478
100
AcDbEntity
  8
0
100
AcDbVertex
100
AcDb2dVertex
 10
237.90000000
 20
-12.25000000
 30
0.0
  0
VERTEX
  5
479
100
AcDbEntity
  8
0
100
AcDbVertex
100
AcDb2dVertex
 10
267.90000000
 20
-12.25000000
 30
0.0
  0
SEQEND
  5
47A
100
AcDbEntity
  8
0
  0
POLYLINE
  5
47B
100
AcDbEntity
  8
0
100
AcDb2dPolyline
 66
     1
 70
     1
  0
VERTEX
  5
47C
100
AcDbEntity
  8
0
100
AcDbVertex
100
AcDb2dVertex
 10
237.90000000
 20
-10.25000000
 30
0.0
  0
VERTEX
  5
47D
100
AcDbEntity
  8
0
100
AcDbVertex
100
AcDb2dVertex
 10
237.90000000
 20
-12.25000000
 30
0.0
  0
SEQEND
  5
47E
100
AcDbEntity
  8
0
  0
POINT
  5
47F
100
AcDbEntity
  8
0
100
AcDbPoint
 10
266.40000000
 20
0.25000000
 30
0.0
  0
POINT
  5
480
100
AcDbEntity
  8
0
100
AcDbPoint
 10
266.40000000
 20
0.25000000
 30
0.0
  0
ENDBLK
  5
481
100
AcDbEntity
  8
0
100
AcDbBlockEnd
  0
BLOCK
  5
482
100
AcDbEntity
  8
0
100
AcDbBlockBegin
  2
544615594_00030
 70
    64
 10
0.0
 20
0.0
 30
0.0
  3
544615594_00030
  0
INSERT
  5
483
100
AcDbEntity
  8
0
100
AcDbBlockReference
  2
_544615594_00031
 10
344.90000000
 20
15.25000000
 30
0.0
  0
ENDBLK
  5
484
100
AcDbEntity
  8
0
100
AcDbBlockEnd
  0
BLOCK
  5
485
100
AcDbEntity
  8
0
100
AcDbBlockBegin
  2
_544615594_00031
 70
    64
 10
344.90000000
 20
15.25000000
 30
0.0
  3
_544615594_00031
  0
POLYLINE
  5
486
100
AcDbEntity
  8
0
100
AcDb2dPolyline
 66
     1
 70
     1
  0
VERTEX
  5
487
100
AcDbEntity
  8
0
100
AcDbVertex
100
AcDb2dVertex
 10
344.90000000
 20
15.25000000
 30
0.0
  0
VERTEX
  5
488
100
AcDbEntity
  8
0
100
AcDbVertex
100
AcDb2dVertex
 10
341.30073593
 20
15.25000000
 30
0.0
  0
SEQEND
  5
489
100
AcDbEntity
  8
0
  0
POLYLINE
  5
48A
100
AcDbEntity
  8
0
100
AcDb2dPolyline
 66
     1
 70
     1
  0
VERTEX
  5
48B
100
AcDbEntity
  8
0
100
AcDbVertex
100
AcDb2dVertex
 10
344.90000000
 20
-15.75000000
 30
0.0
  0
VERTEX
  5
48C
100
AcDbEntity
  8
0
100
AcDbVertex
100
AcDb2dVertex
 10
344.90000000
 20
15.25000000
 30
0.0
  0
SEQEND
  5
48D
100
AcDbEntity
  8
0
  0
POLYLINE
  5
48E
100
AcDbEntity
  8
0
100
AcDb2dPolyline
 66
     1
 70
     1
  0
VERTEX
  5
48F
100
AcDbEntity
  8
0
100
AcDbVertex
100
AcDb2dVertex
 10
339.90000000
 20
-26.75000000
 30
0.0
  0
VERTEX
  5
490
100
AcDbEntity
  8
0
100
AcDbVertex
100
AcDb2dVertex
 10
344.90000000
 20
-15.75000000
 30
0.0
  0
SEQEND
  5
491
100
AcDbEntity
  8
0
  0
POLYLINE
  5
492
100
AcDbEntity
  8
0
100
AcDb2dPolyline
 66
     1
 70
     1
  0
VERTEX
  5
493
100
AcDbEntity
  8
0
100
AcDbVertex
100
AcDb2dVertex
 10
337.62408381
 20
-25.71549264
 30
0.0
  0
VERTEX
  5
494
100
AcDbEntity
  8
0
100
AcDbVertex
100
AcDb2dVertex
 10
339.90000000
 20
-26.75000000
 30
0.0
  0
SEQEND
  5
495
100
AcDbEntity
  8
0
  0
POLYLINE
  5
496
100
AcDbEntity
  8
0
100
AcDb2dPolyline
 66
     1
 70
     1
  0
VERTEX
  5
497
100
AcDbEntity
  8
0
100
AcDbVertex
100
AcDb2dVertex
 10
341.90000000
 20
-16.30847701
 30
0.0
  0
VERTEX
  5
498
100
AcDbEntity
  8
0
100
AcDbVertex
100
AcDb2dVertex
 10
337.62408381
 20
-25.71549264
 30
0.0
  0
SEQEND
  5
499
100
AcDbEntity
  8
0
  0
POLYLINE
  5
49A
100
AcDbEntity
  8
0
100
AcDb2dPolyline
 66
     1
 70
     1
  0
VERTEX
  5
49B
100
AcDbEntity
  8
0
100
AcDbVertex
100
AcDb2dVertex
 10
341.90000000
 20
0.25000000
 30
0.0
  0
VERTEX
  5
49C
100
AcDbEntity
  8
0
100
AcDbVertex
100
AcDb2dVertex
 10
341.90000000
 20
-16.30847701
 30
0.0
  0
SEQEND
  5
49D
100
AcDbEntity
  8
0
  0
POLYLINE
  5
49E
100
AcDbEntity
  8
0
100
AcDb2dPolyline
 66
     1
 70
     1
  0
VERTEX
  5
49F
100
AcDbEntity
  8
0
100
AcDbVertex
100
AcDb2dVertex
 10
320.90000000
 20
0.25000000
 30
0.0
  0
VERTEX
  5
4A0
100
AcDbEntity
  8
0
100
AcDbVertex
100
AcDb2dVertex
 10
341.90000000
 20
0.25000000
 30
0.0
  0
SEQEND
  5
4A1
100
AcDbEntity
  8
0
  0
POLYLINE
  5
4A2
100
AcDbEntity
  8
0
100
AcDb2dPolyline
 66
     1
 70
     1
  0
VERTEX
  5
4A3
100
AcDbEntity
  8
0
100
AcDbVertex
100
AcDb2dVertex
 10
320.90000000
 20
7.95000000
 30
0.0
  0
VERTEX
  5
4A4
100
AcDbEntity
  8
0
100
AcDbVertex
100
AcDb2dVertex
 10
320.90000000
 20
0.25000000
 30
0.0
  0
SEQEND
  5
4A5
100
AcDbEntity
  8
0
  0
POLYLINE
  5
4A6
100
AcDbEntity
  8
0
100
AcDb2dPolyline
 66
     1
 70
     1
  0
VERTEX
  5
4A7
100
AcDbEntity
  8
0
100
AcDbVertex
100
AcDb2dVertex
 10
309.90000000
 20
7.95000000
 30
0.0
  0
VERTEX
  5
4A8
100
AcDbEntity
  8
0
100
AcDbVertex
100
AcDb2dVertex
 10
320.90000000
 20
7.95000000
 30
0.0
  0
SEQEND
  5
4A9
100
AcDbEntity
  8
0
  0
POLYLINE
  5
4AA
100
AcDbEntity
  8
0
100
AcDb2dPolyline
 66
     1
 70
     1
  0
VERTEX
  5
4AB
100
AcDbEntity
  8
0
100
AcDbVertex
100
AcDb2dVertex
 10
309.90000000
 20
11.25000000
 30
0.0
  0
VERTEX
  5
4AC
100
AcDbEntity
  8
0
100
AcDbVertex
100
AcDb2dVertex
 10
309.90000000
 20
7.95000000
 30
0.0
  0
SEQEND
  5
4AD
100
AcDbEntity
  8
0
  0
POLYLINE
  5
4AE
100
AcDbEntity
  8
0
100
AcDb2dPolyline
 66
     1
 70
     1
  0
VERTEX
  5
4AF
100
AcDbEntity
  8
0
100
AcDbVertex
100
AcDb2dVertex
 10
314.90000000
 20
11.25000000
 30
0.0
  0
VERTEX
  5
4B0
100
AcDbEntity
  8
0
100
AcDbVertex
100
AcDb2dVertex
 10
309.90000000
 20
11.25000000
 30
0.0
  0
SEQEND
  5
4B1
100
AcDbEntity
  8
0
  0
POLYLINE
  5
4B2
100
AcDbEntity
  8
0
100
AcDb2dPolyline
 66
     1
 70
     1
  0
VERTEX
  5
4B3
100
AcDbEntity
  8
0
100
AcDbVertex
100
AcDb2dVertex
 10
314.90000000
 20
15.25000000
 30
0.0
  0
VERTEX
  5
4B4
100
AcDbEntity
  8
0
100
AcDbVertex
100
AcDb2dVertex
 10
314.90000000
 20
11.25000000
 30
0.0
  0
SEQEND
  5
4B5
100
AcDbEntity
  8
0
  0
POLYLINE
  5
4B6
100
AcDbEntity
  8
0
100
AcDb2dPolyline
 66
     1
 70
     1
  0
VERTEX
  5
4B7
100
AcDbEntity
  8
0
100
AcDbVertex
100
AcDb2dVertex
 10
317.54926407
 20
15.25000000
 30
0.0
  0
VERTEX
  5
4B8
100
AcDbEntity
  8
0
100
AcDbVertex
100
AcDb2dVertex
 10
314.90000000
 20
15.25000000
 30
0.0
  0
SEQEND
  5
4B9
100
AcDbEntity
  8
0
  0
POLYLINE
  5
4BA
100
AcDbEntity
  8
0
100
AcDb2dPolyline
 66
     1
 70
     1
  0
VERTEX
  5
4BB
100
AcDbEntity
  8
0
100
AcDbVertex
100
AcDb2dVertex
 10
318.48713203
 20
14.31213203
 30
0.0
  0
VERTEX
  5
4BC
100
AcDbEntity
  8
0
100
AcDbVertex
100
AcDb2dVertex
 10
317.54926407
 20
15.25000000
 30
0.0
  0
VERTEX
  5
4BD
100
AcDbEntity
  8
0
100
AcDbVertex
100
AcDb2dVertex
 10
318.48713203
 20
14.31213203
 30
0.0
  0
VERTEX
  5
4BE
100
AcDbEntity
  8
0
100
AcDbVertex
100
AcDb2dVertex
 10
319.42500000
 20
15.25000000
 30
0.0
  0
SEQEND
  5
4BF
100
AcDbEntity
  8
0
  0
POLYLINE
  5
4C0
100
AcDbEntity
  8
0
100
AcDb2dPolyline
 66
     1
 70
     1
  0
VERTEX
  5
4C1
100
AcDbEntity
  8
0
100
AcDbVertex
100
AcDb2dVertex
 10
320.42500000
 20
14.25000000
 30
0.0
  0
VERTEX
  5
4C2
100
AcDbEntity
  8
0
100
AcDbVertex
100
AcDb2dVertex
 10
319.42500000
 20
15.25000000
 30
0.0
  0
SEQEND
  5
4C3
100
AcDbEntity
  8
0
  0
POLYLINE
  5
4C4
100
AcDbEntity
  8
0
100
AcDb2dPolyline
 66
     1
 70
     1
  0
VERTEX
  5
4C5
100
AcDbEntity
  8
0
100
AcDbVertex
100
AcDb2dVertex
 10
321.42500000
 20
15.25000000
 30
0.0
  0
VERTEX
  5
4C6
100
AcDbEntity
  8
0
100
AcDbVertex
100
AcDb2dVertex
 10
320.42500000
 20
14.25000000
 30
0.0
  0
VERTEX
  5
4C7
100
AcDbEntity
  8
0
100
AcDbVertex
100
AcDb2dVertex
 10
321.42500000
 20
15.25000000
 30
0.0
  0
VERTEX
  5
4C8
100
AcDbEntity
  8
0
100
AcDbVertex
100
AcDb2dVertex
 10
322.42500000
 20
14.25000000
 30
0.0
  0
SEQEND
  5
4C9
100
AcDbEntity
  8
0
  0
POLYLINE
  5
4CA
100
AcDbEntity
  8
0
100
AcDb2dPolyline
 66
     1
 70
     1
  0
VERTEX
  5
4CB
100
AcDbEntity
  8
0
100
AcDbVertex
100
AcDb2dVertex
 10
322.42500000
 20
14.25000000
 30
0.0
  0
VERTEX
  5
4CC
100
AcDbEntity
  8
0
100
AcDbVertex
100
AcDb2dVertex
 10
323.42500000
 20
15.25000000
 30
0.0
  0
SEQEND
  5
4CD
100
AcDbEntity
  8
0
  0
POLYLINE
  5
4CE
100
AcDbEntity
  8
0
100
AcDb2dPolyline
 66
     1
 70
     1
  0
VERTEX
  5
4CF
100
AcDbEntity
  8
0
100
AcDbVertex
100
AcDb2dVertex
 10
324.42500000
 20
14.25000000
 30
0.0
  0
VERTEX
  5
4D0
100
AcDbEntity
  8
0
100
AcDbVertex
100
AcDb2dVertex
 10
323.42500000
 20
15.25000000
 30
0.0
  0
SEQEND
  5
4D1
100
AcDbEntity
  8
0
  0
POLYLINE
  5
4D2
100
AcDbEntity
  8
0
100
AcDb2dPolyline
 66
     1
 70
     1
  0
VERTEX
  5
4D3
100
AcDbEntity
  8
0
100
AcDbVertex
100
AcDb2dVertex
 10
325.42500000
 20
15.25000000
 30
0.0
  0
VERTEX
  5
4D4
100
AcDbEntity
  8
0
100
AcDbVertex
100
AcDb2dVertex
 10
324.42500000
 20
14.25000000
 30
0.0
  0
VERTEX
  5
4D5
100
AcDbEntity
  8
0
100
AcDbVertex
100
AcDb2dVertex
 10
325.42500000
 20
15.25000000
 30
0.0
  0
VERTEX
  5
4D6
100
AcDbEntity
  8
0
100
AcDbVertex
100
AcDb2dVertex
 10
326.42500000
 20
14.25000000
 30
0.0
  0
SEQEND
  5
4D7
100
AcDbEntity
  8
0
  0
POLYLINE
  5
4D8
100
AcDbEntity
  8
0
100
AcDb2dPolyline
 66
     1
 70
     1
  0
VERTEX
  5
4D9
100
AcDbEntity
  8
0
100
AcDbVertex
100
AcDb2dVertex
 10
326.42500000
 20
14.25000000
 30
0.0
  0
VERTEX
  5
4DA
100
AcDbEntity
  8
0
100
AcDbVertex
100
AcDb2dVertex
 10
327.42500000
 20
15.25000000
 30
0.0
  0
SEQEND
  5
4DB
100
AcDbEntity
  8
0
  0
POLYLINE
  5
4DC
100
AcDbEntity
  8
0
100
AcDb2dPolyline
 66
     1
 70
     1
  0
VERTEX
  5
4DD
100
AcDbEntity
  8
0
100
AcDbVertex
100
AcDb2dVertex
 10
327.42500000
 20
15.25000000
 30
0.0
  0
VERTEX
  5
4DE
100
AcDbEntity
  8
0
100
AcDbVertex
100
AcDb2dVertex
 10
328.42500000
 20
14.25000000
 30
0.0
  0
SEQEND
  5
4DF
100
AcDbEntity
  8
0
  0
POLYLINE
  5
4E0
100
AcDbEntity
  8
0
100
AcDb2dPolyline
 66
     1
 70
     1
  0
VERTEX
  5
4E1
100
AcDbEntity
  8
0
100
AcDbVertex
100
AcDb2dVertex
 10
328.42500000
 20
14.25000000
 30
0.0
  0
VERTEX
  5
4E2
100
AcDbEntity
  8
0
100
AcDbVertex
100
AcDb2dVertex
 10
329.42500000
 20
15.25000000
 30
0.0
  0
SEQEND
  5
4E3
100
AcDbEntity
  8
0
  0
POLYLINE
  5
4E4
100
AcDbEntity
  8
0
100
AcDb2dPolyline
 66
     1
 70
     1
  0
VERTEX
  5
4E5
100
AcDbEntity
  8
0
100
AcDbVertex
100
AcDb2dVertex
 10
329.42500000
 20
15.25000000
 30
0.0
  0
VERTEX
  5
4E6
100
AcDbEntity
  8
0
100
AcDbVertex
100
AcDb2dVertex
 10
330.42500000
 20
14.25000000
 30
0.0
  0
SEQEND
  5
4E7
100
AcDbEntity
  8
0
  0
POLYLINE
  5
4E8
100
AcDbEntity
  8
0
100
AcDb2dPolyline
 66
     1
 70
     1
  0
VERTEX
  5
4E9
100
AcDbEntity
  8
0
100
AcDbVertex
100
AcDb2dVertex
 10
331.42500000
 20
15.25000000
 30
0.0
  0
VERTEX
  5
4EA
100
AcDbEntity
  8
0
100
AcDbVertex
100
AcDb2dVertex
 10
330.42500000
 20
14.25000000
 30
0.0
  0
SEQEND
  5
4EB
100
AcDbEntity
  8
0
  0
POLYLINE
  5
4EC
100
AcDbEntity
  8
0
100
AcDb2dPolyline
 66
     1
 70
     1
  0
VERTEX
  5
4ED
100
AcDbEntity
  8
0
100
AcDbVertex
100
AcDb2dVertex
 10
332.42500000
 20
14.25000000
 30
0.0
  0
VERTEX
  5
4EE
100
AcDbEntity
  8
0
100
AcDbVertex
100
AcDb2dVertex
 10
331.42500000
 20
15.25000000
 30
0.0
  0
VERTEX
  5
4EF
100
AcDbEntity
  8
0
100
AcDbVertex
100
AcDb2dVertex
 10
332.42500000
 20
14.25000000
 30
0.0
  0
VERTEX
  5
4F0
100
AcDbEntity
  8
0
100
AcDbVertex
100
AcDb2dVertex
 10
333.42500000
 20
15.25000000
 30
0.0
  0
SEQEND
  5
4F1
100
AcDbEntity
  8
0
  0
POLYLINE
  5
4F2
100
AcDbEntity
  8
0
100
AcDb2dPolyline
 66
     1
 70
     1
  0
VERTEX
  5
4F3
100
AcDbEntity
  8
0
100
AcDbVertex
100
AcDb2dVertex
 10
333.42500000
 20
15.25000000
 30
0.0
  0
VERTEX
  5
4F4
100
AcDbEntity
  8
0
100
AcDbVertex
100
AcDb2dVertex
 10
334.42500000
 20
14.25000000
 30
0.0
  0
SEQEND
  5
4F5
100
AcDbEntity
  8
0
  0
POLYLINE
  5
4F6
100
AcDbEntity
  8
0
100
AcDb2dPolyline
 66
     1
 70
     1
  0
VERTEX
  5
4F7
100
AcDbEntity
  8
0
100
AcDbVertex
100
AcDb2dVertex
 10
334.42500000
 20
14.25000000
 30
0.0
  0
VERTEX
  5
4F8
100
AcDbEntity
  8
0
100
AcDbVertex
100
AcDb2dVertex
 10
335.42500000
 20
15.25000000
 30
0.0
  0
SEQEND
  5
4F9
100
AcDbEntity
  8
0
  0
POLYLINE
  5
4FA
100
AcDbEntity
  8
0
100
AcDb2dPolyline
 66
     1
 70
     1
  0
VERTEX
  5
4FB
100
AcDbEntity
  8
0
100
AcDbVertex
100
AcDb2dVertex
 10
335.42500000
 20
15.25000000
 30
0.0
  0
VERTEX
  5
4FC
100
AcDbEntity
  8
0
100
AcDbVertex
100
AcDb2dVertex
 10
336.42500000
 20
14.25000000
 30
0.0
  0
SEQEND
  5
4FD
100
AcDbEntity
  8
0
  0
POLYLINE
  5
4FE
100
AcDbEntity
  8
0
100
AcDb2dPolyline
 66
     1
 70
     1
  0
VERTEX
  5
4FF
100
AcDbEntity
  8
0
100
AcDbVertex
100
AcDb2dVertex
 10
337.42500000
 20
15.25000000
 30
0.0
  0
VERTEX
  5
500
100
AcDbEntity
  8
0
100
AcDbVertex
100
AcDb2dVertex
 10
336.42500000
 20
14.25000000
 30
0.0
  0
SEQEND
  5
501
100
AcDbEntity
  8
0
  0
POLYLINE
  5
502
100
AcDbEntity
  8
0
100
AcDb2dPolyline
 66
     1
 70
     1
  0
VERTEX
  5
503
100
AcDbEntity
  8
0
100
AcDbVertex
100
AcDb2dVertex
 10
338.42500000
 20
14.25000000
 30
0.0
  0
VERTEX
  5
504
100
AcDbEntity
  8
0
100
AcDbVertex
100
AcDb2dVertex
 10
337.42500000
 20
15.25000000
 30
0.0
  0
SEQEND
  5
505
100
AcDbEntity
  8
0
  0
POLYLINE
  5
506
100
AcDbEntity
  8
0
100
AcDb2dPolyline
 66
     1
 70
     1
  0
VERTEX
  5
507
100
AcDbEntity
  8
0
100
AcDbVertex
100
AcDb2dVertex
 10
339.42500000
 20
15.25000000
 30
0.0
  0
VERTEX
  5
508
100
AcDbEntity
  8
0
100
AcDbVertex
100
AcDb2dVertex
 10
338.42500000
 20
14.25000000
 30
0.0
  0
VERTEX
  5
509
100
AcDbEntity
  8
0
100
AcDbVertex
100
AcDb2dVertex
 10
339.42500000
 20
15.25000000
 30
0.0
  0
VERTEX
  5
50A
100
AcDbEntity
  8
0
100
AcDbVertex
100
AcDb2dVertex
 10
340.36286797
 20
14.31213203
 30
0.0
  0
SEQEND
  5
50B
100
AcDbEntity
  8
0
  0
POLYLINE
  5
50C
100
AcDbEntity
  8
0
100
AcDb2dPolyline
 66
     1
 70
     1
  0
VERTEX
  5
50D
100
AcDbEntity
  8
0
100
AcDbVertex
100
AcDb2dVertex
 10
340.36286797
 20
14.31213203
 30
0.0
  0
VERTEX
  5
50E
100
AcDbEntity
  8
0
100
AcDbVertex
100
AcDb2dVertex
 10
341.30073593
 20
15.25000000
 30
0.0
  0
SEQEND
  5
50F
100
AcDbEntity
  8
0
  0
POINT
  5
510
100
AcDbEntity
  8
0
100
AcDbPoint
 10
327.40000000
 20
0.25000000
 30
0.0
  0
POINT
  5
511
100
AcDbEntity
  8
0
100
AcDbPoint
 10
327.40000000
 20
0.25000000
 30
0.0
  0
ENDBLK
  5
512
100
AcDbEntity
  8
0
100
AcDbBlockEnd
  0
BLOCK
  5
513
100
AcDbEntity
  8
0
100
AcDbBlockBegin
  2
544612208_00032
 70
    64
 10
0.0
 20
0.0
 30
0.0
  3
544612208_00032
  0
INSERT
  5
514
100
AcDbEntity
  8
0
100
AcDbBlockReference
  2
_544612208_00033
 10
451.80000000
 20
32.45000000
 30
0.0
  0
ENDBLK
  5
515
100
AcDbEntity
  8
0
100
AcDbBlockEnd
  0
BLOCK
  5
516
100
AcDbEntity
  8
0
100
AcDbBlockBegin
  2
_544612208_00033
 70
    64
 10
451.80000000
 20
32.45000000
 30
0.0
  3
_544612208_00033
  0
POLYLINE
  5
517
100
AcDbEntity
  8
0
100
AcDb2dPolyline
 66
     1
 70
     1
  0
VERTEX
  5
518
100
AcDbEntity
  8
0
100
AcDbVertex
100
AcDb2dVertex
 10
451.80000000
 20
32.45000000
 30
0.0
  0
VERTEX
  5
519
100
AcDbEntity
  8
0
100
AcDbVertex
100
AcDb2dVertex
 10
451.80000000
 20
10.25000000
 30
0.0
  0
VERTEX
  5
51A
100
AcDbEntity
  8
0
100
AcDbVertex
100
AcDb2dVertex
 10
451.80000000
 20
32.45000000
 30
0.0
  0
VERTEX
  5
51B
100
AcDbEntity
  8
0
100
AcDbVertex
100
AcDb2dVertex
 10
448.80000000
 20
32.45000000
 30
0.0
  0
SEQEND
  5
51C
100
AcDbEntity
  8
0
  0
POLYLINE
  5
51D
100
AcDbEntity
  8
0
100
AcDb2dPolyline
 66
     1
 70
     1
  0
VERTEX
  5
51E
100
AcDbEntity
  8
0
100
AcDbVertex
100
AcDb2dVertex
 10
448.80000000
 20
32.45000000
 30
0.0
  0
VERTEX
  5
51F
100
AcDbEntity
  8
0
100
AcDbVertex
100
AcDb2dVertex
 10
448.80000000
 20
27.00000000
 30
0.0
  0
SEQEND
  5
520
100
AcDbEntity
  8
0
  0
POLYLINE
  5
521
100
AcDbEntity
  8
0
100
AcDb2dPolyline
 66
     1
 70
     1
  0
VERTEX
  5
522
100
AcDbEntity
  8
0
100
AcDbVertex
100
AcDb2dVertex
 10
447.80000000
 20
27.00000000
 30
0.0
  0
VERTEX
  5
523
100
AcDbEntity
  8
0
100
AcDbVertex
100
AcDb2dVertex
 10
448.80000000
 20
27.00000000
 30
0.0
  0
VERTEX
  5
524
100
AcDbEntity
  8
0
100
AcDbVertex
100
AcDb2dVertex
 10
447.80000000
 20
27.00000000
 30
0.0
  0
VERTEX
  5
525
100
AcDbEntity
  8
0
100
AcDbVertex
100
AcDb2dVertex
 10
447.80000000
 20
33.70000000
 30
0.0
  0
SEQEND
  5
526
100
AcDbEntity
  8
0
  0
POLYLINE
  5
527
100
AcDbEntity
  8
0
100
AcDb2dPolyline
 66
     1
 70
     1
  0
VERTEX
  5
528
100
AcDbEntity
  8
0
100
AcDbVertex
100
AcDb2dVertex
 10
447.80000000
 20
33.70000000
 30
0.0
  0
VERTEX
  5
529
100
AcDbEntity
  8
0
100
AcDbVertex
100
AcDb2dVertex
 10
451.80000000
 20
33.70000000
 30
0.0
  0
SEQEND
  5
52A
100
AcDbEntity
  8
0
  0
POLYLINE
  5
52B
100
AcDbEntity
  8
0
100
AcDb2dPolyline
 66
     1
 70
     1
  0
VERTEX
  5
52C
100
AcDbEntity
  8
0
100
AcDbVertex
100
AcDb2dVertex
 10
451.80000000
 20
33.70000000
 30
0.0
  0
VERTEX
  5
52D
100
AcDbEntity
  8
0
100
AcDbVertex
100
AcDb2dVertex
 10
451.80000000
 20
44.05000000
 30
0.0
  0
SEQEND
  5
52E
100
AcDbEntity
  8
0
  0
POLYLINE
  5
52F
100
AcDbEntity
  8
0
100
AcDb2dPolyline
 66
     1
 70
     1
  0
VERTEX
  5
530
100
AcDbEntity
  8
0
100
AcDbVertex
100
AcDb2dVertex
 10
441.60000000
 20
44.05000000
 30
0.0
  0
VERTEX
  5
531
100
AcDbEntity
  8
0
100
AcDbVertex
100
AcDb2dVertex
 10
451.80000000
 20
44.05000000
 30
0.0
  0
VERTEX
  5
532
100
AcDbEntity
  8
0
100
AcDbVertex
100
AcDb2dVertex
 10
441.60000000
 20
44.05000000
 30
0.0
  0
VERTEX
  5
533
100
AcDbEntity
  8
0
100
AcDbVertex
100
AcDb2dVertex
 10
441.60000000
 20
27.00000000
 30
0.0
  0
SEQEND
  5
534
100
AcDbEntity
  8
0
  0
POLYLINE
  5
535
100
AcDbEntity
  8
0
100
AcDb2dPolyline
 66
     1
 70
     1
  0
VERTEX
  5
536
100
AcDbEntity
  8
0
100
AcDbVertex
100
AcDb2dVertex
 10
440.60000000
 20
27.00000000
 30
0.0
  0
VERTEX
  5
537
100
AcDbEntity
  8
0
100
AcDbVertex
100
AcDb2dVertex
 10
441.60000000
 20
27.00000000
 30
0.0
  0
VERTEX
  5
538
100
AcDbEntity
  8
0
100
AcDbVertex
100
AcDb2dVertex
 10
440.60000000
 20
27.00000000
 30
0.0
  0
VERTEX
  5
539
100
AcDbEntity
  8
0
100
AcDbVertex
100
AcDb2dVertex
 10
440.60000000
 20
44.05000000
 30
0.0
  0
SEQEND
  5
53A
100
AcDbEntity
  8
0
  0
POLYLINE
  5
53B
100
AcDbEntity
  8
0
100
AcDb2dPolyline
 66
     1
 70
     1
  0
VERTEX
  5
53C
100
AcDbEntity
  8
0
100
AcDbVertex
100
AcDb2dVertex
 10
440.60000000
 20
44.05000000
 30
0.0
  0
VERTEX
  5
53D
100
AcDbEntity
  8
0
100
AcDbVertex
100
AcDb2dVertex
 10
439.20000000
 20
44.05000000
 30
0.0
  0
SEQEND
  5
53E
100
AcDbEntity
  8
0
  0
POLYLINE
  5
53F
100
AcDbEntity
  8
0
100
AcDb2dPolyline
 66
     1
 70
     1
  0
VERTEX
  5
540
100
AcDbEntity
  8
0
100
AcDbVertex
100
AcDb2dVertex
 10
439.20000000
 20
45.25000000
 30
0.0
  0
VERTEX
  5
541
100
AcDbEntity
  8
0
100
AcDbVertex
100
AcDb2dVertex
 10
439.20000000
 20
44.05000000
 30
0.0
  0
SEQEND
  5
542
100
AcDbEntity
  8
0
  0
POLYLINE
  5
543
100
AcDbEntity
  8
0
100
AcDb2dPolyline
 66
     1
 70
     1
  0
VERTEX
  5
544
100
AcDbEntity
  8
0
100
AcDbVertex
100
AcDb2dVertex
 10
453.00000000
 20
45.25000000
 30
0.0
  0
VERTEX
  5
545
100
AcDbEntity
  8
0
100
AcDbVertex
100
AcDb2dVertex
 10
439.20000000
 20
45.25000000
 30
0.0
  0
SEQEND
  5
546
100
AcDbEntity
  8
0
  0
POLYLINE
  5
547
100
AcDbEntity
  8
0
100
AcDb2dPolyline
 66
     1
 70
     1
  0
VERTEX
  5
548
100
AcDbEntity
  8
0
100
AcDbVertex
100
AcDb2dVertex
 10
453.00000000
 20
10.25000000
 30
0.0
  0
VERTEX
  5
549
100
AcDbEntity
  8
0
100
AcDbVertex
100
AcDb2dVertex
 10
453.00000000
 20
45.25000000
 30
0.0
  0
SEQEND
  5
54A
100
AcDbEntity
  8
0
  0
POLYLINE
  5
54B
100
AcDbEntity
  8
0
100
AcDb2dPolyline
 66
     1
 70
     1
  0
VERTEX
  5
54C
100
AcDbEntity
  8
0
100
AcDbVertex
100
AcDb2dVertex
 10
451.80000000
 20
10.25000000
 30
0.0
  0
VERTEX
  5
54D
100
AcDbEntity
  8
0
100
AcDbVertex
100
AcDb2dVertex
 10
453.00000000
 20
10.25000000
 30
0.0
  0
SEQEND
  5
54E
100
AcDbEntity
  8
0
  0
POINT
  5
54F
100
AcDbEntity
  8
0
100
AcDbPoint
 10
446.10000000
 20
30.25000000
 30
0.0
  0
POINT
  5
550
100
AcDbEntity
  8
0
100
AcDbPoint
 10
446.10000000
 20
30.25000000
 30
0.0
  0
ENDBLK
  5
551
100
AcDbEntity
  8
0
100
AcDbBlockEnd
  0
BLOCK
  5
552
100
AcDbEntity
  8
0
100
AcDbBlockBegin
  2
551893631_00034
 70
    64
 10
0.0
 20
0.0
 30
0.0
  3
551893631_00034
  0
INSERT
  5
553
100
AcDbEntity
  8
0
100
AcDbBlockReference
  2
_551893631_00035
 10
439.00000000
 20
-12.80000000
 30
0.0
  0
ENDBLK
  5
554
100
AcDbEntity
  8
0
100
AcDbBlockEnd
  0
BLOCK
  5
555
100
AcDbEntity
  8
0
100
AcDbBlockBegin
  2
_551893631_00035
 70
    64
 10
439.00000000
 20
-12.80000000
 30
0.0
  3
_551893631_00035
  0
POLYLINE
  5
556
100
AcDbEntity
  8
0
100
AcDb2dPolyline
 66
     1
 70
     1
  0
VERTEX
  5
557
100
AcDbEntity
  8
0
100
AcDbVertex
100
AcDb2dVertex
 10
439.00000000
 20
-12.80000000
 30
0.0
  0
VERTEX
  5
558
100
AcDbEntity
  8
0
100
AcDbVertex
100
AcDb2dVertex
 10
418.67647309
 20
-12.80000000
 30
0.0
  0
SEQEND
  5
559
100
AcDbEntity
  8
0
  0
POLYLINE
  5
55A
100
AcDbEntity
  8
0
100
AcDb2dPolyline
 66
     1
 70
     1
  0
VERTEX
  5
55B
100
AcDbEntity
  8
0
100
AcDbVertex
100
AcDb2dVertex
 10
418.67647309
 20
-12.80000000
 30
0.0
  0
VERTEX
  5
55C
100
AcDbEntity
  8
0
100
AcDbVertex
100
AcDb2dVertex
 10
383.73836180
 20
-13.49591751
 30
0.0
  0
SEQEND
  5
55D
100
AcDbEntity
  8
0
  0
POLYLINE
  5
55E
100
AcDbEntity
  8
0
100
AcDb2dPolyline
 66
     1
 70
     1
  0
VERTEX
  5
55F
100
AcDbEntity
  8
0
100
AcDbVertex
100
AcDb2dVertex
 10
380.69193674
 20
-11.84068126
 30
0.0
  0
VERTEX
  5
560
100
AcDbEntity
  8
0
100
AcDbVertex
100
AcDb2dVertex
 10
383.73836180
 20
-13.49591751
 30
0.0
  0
VERTEX
  5
561
100
AcDbEntity
  8
0
100
AcDbVertex
100
AcDb2dVertex
 10
380.69193674
 20
-11.84068126
 30
0.0
  0
VERTEX
  5
562
100
AcDbEntity
  8
0
100
AcDbVertex
100
AcDb2dVertex
 10
381.40806326
 20
-10.52266654
 30
0.0
  0
SEQEND
  5
563
100
AcDbEntity
  8
0
  0
POLYLINE
  5
564
100
AcDbEntity
  8
0
100
AcDb2dPolyline
 66
     1
 70
     1
  0
VERTEX
  5
565
100
AcDbEntity
  8
0
100
AcDbVertex
100
AcDb2dVertex
 10
383.19801117
 20
-11.49521194
 30
0.0
  0
VERTEX
  5
566
100
AcDbEntity
  8
0
100
AcDbVertex
100
AcDb2dVertex
 10
381.40806326
 20
-10.52266654
 30
0.0
  0
VERTEX
  5
567
100
AcDbEntity
  8
0
100
AcDbVertex
100
AcDb2dVertex
 10
383.19801117
 20
-11.49521194
 30
0.0
  0
VERTEX
  5
568
100
AcDbEntity
  8
0
100
AcDbVertex
100
AcDb2dVertex
 10
412.00000000
 20
-10.74949732
 30
0.0
  0
SEQEND
  5
569
100
AcDbEntity
  8
0
  0
POLYLINE
  5
56A
100
AcDbEntity
  8
0
100
AcDb2dPolyline
 66
     1
 70
     1
  0
VERTEX
  5
56B
100
AcDbEntity
  8
0
100
AcDbVertex
100
AcDb2dVertex
 10
412.00000000
 20
-10.74949732
 30
0.0
  0
VERTEX
  5
56C
100
AcDbEntity
  8
0
100
AcDbVertex
100
AcDb2dVertex
 10
412.00000000
 20
10.74949732
 30
0.0
  0
SEQEND
  5
56D
100
AcDbEntity
  8
0
  0
POLYLINE
  5
56E
100
AcDbEntity
  8
0
100
AcDb2dPolyline
 66
     1
 70
     1
  0
VERTEX
  5
56F
100
AcDbEntity
  8
0
100
AcDbVertex
100
AcDb2dVertex
 10
412.00000000
 20
10.74949732
 30
0.0
  0
VERTEX
  5
570
100
AcDbEntity
  8
0
100
AcDbVertex
100
AcDb2dVertex
 10
383.19801117
 20
11.49521194
 30
0.0
  0
SEQEND
  5
571
100
AcDbEntity
  8
0
  0
POLYLINE
  5
572
100
AcDbEntity
  8
0
100
AcDb2dPolyline
 66
     1
 70
     1
  0
VERTEX
  5
573
100
AcDbEntity
  8
0
100
AcDbVertex
100
AcDb2dVertex
 10
381.40806326
 20
10.52266654
 30
0.0
  0
VERTEX
  5
574
100
AcDbEntity
  8
0
100
AcDbVertex
100
AcDb2dVertex
 10
383.19801117
 20
11.49521194
 30
0.0
  0
SEQEND
  5
575
100
AcDbEntity
  8
0
  0
POLYLINE
  5
576
100
AcDbEntity
  8
0
100
AcDb2dPolyline
 66
     1
 70
     1
  0
VERTEX
  5
577
100
AcDbEntity
  8
0
100
AcDbVertex
100
AcDb2dVertex
 10
380.69193674
 20
11.84068126
 30
0.0
  0
VERTEX
  5
578
100
AcDbEntity
  8
0
100
AcDbVertex
100
AcDb2dVertex
 10
381.40806326
 20
10.52266654
 30
0.0
  0
VERTEX
  5
579
100
AcDbEntity
  8
0
100
AcDbVertex
100
AcDb2dVertex
 10
380.69193674
 20
11.84068126
 30
0.0
  0
VERTEX
  5
57A
100
AcDbEntity
  8
0
100
AcDbVertex
100
AcDb2dVertex
 10
384.03226266
 20
13.65560480
 30
0.0
  0
SEQEND
  5
57B
100
AcDbEntity
  8
0
  0
POLYLINE
  5
57C
100
AcDbEntity
  8
0
100
AcDb2dPolyline
 66
     1
 70
     1
  0
VERTEX
  5
57D
100
AcDbEntity
  8
0
100
AcDbVertex
100
AcDb2dVertex
 10
384.03226266
 20
13.65560480
 30
0.0
  0
VERTEX
  5
57E
100
AcDbEntity
  8
0
100
AcDbVertex
100
AcDb2dVertex
 10
417.07857755
 20
12.80000000
 30
0.0
  0
SEQEND
  5
57F
100
AcDbEntity
  8
0
  0
POLYLINE
  5
580
100
AcDbEntity
  8
0
100
AcDb2dPolyline
 66
     1
 70
     1
  0
VERTEX
  5
581
100
AcDbEntity
  8
0
100
AcDbVertex
100
AcDb2dVertex
 10
439.00000000
 20
12.80000000
 30
0.0
  0
VERTEX
  5
582
100
AcDbEntity
  8
0
100
AcDbVertex
100
AcDb2dVertex
 10
417.07857755
 20
12.80000000
 30
0.0
  0
SEQEND
  5
583
100
AcDbEntity
  8
0
  0
POLYLINE
  5
584
100
AcDbEntity
  8
0
100
AcDb2dPolyline
 66
     1
 70
     1
  0
VERTEX
  5
585
100
AcDbEntity
  8
0
100
AcDbVertex
100
AcDb2dVertex
 10
439.00000000
 20
14.05000000
 30
0.0
  0
VERTEX
  5
586
100
AcDbEntity
  8
0
100
AcDbVertex
100
AcDb2dVertex
 10
439.00000000
 20
12.80000000
 30
0.0
  0
SEQEND
  5
587
100
AcDbEntity
  8
0
  0
POLYLINE
  5
588
100
AcDbEntity
  8
0
100
AcDb2dPolyline
 66
     1
 70
     1
  0
VERTEX
  5
589
100
AcDbEntity
  8
0
100
AcDbVertex
100
AcDb2dVertex
 10
440.60000000
 20
14.05000000
 30
0.0
  0
VERTEX
  5
58A
100
AcDbEntity
  8
0
100
AcDbVertex
100
AcDb2dVertex
 10
439.00000000
 20
14.05000000
 30
0.0
  0
SEQEND
  5
58B
100
AcDbEntity
  8
0
  0
POLYLINE
  5
58C
100
AcDbEntity
  8
0
100
AcDb2dPolyline
 66
     1
 70
     1
  0
VERTEX
  5
58D
100
AcDbEntity
  8
0
100
AcDbVertex
100
AcDb2dVertex
 10
440.60000000
 20
-3.00000000
 30
0.0
  0
VERTEX
  5
58E
100
AcDbEntity
  8
0
100
AcDbVertex
100
AcDb2dVertex
 10
440.60000000
 20
14.05000000
 30
0.0
  0
SEQEND
  5
58F
100
AcDbEntity
  8
0
  0
POLYLINE
  5
590
100
AcDbEntity
  8
0
100
AcDb2dPolyline
 66
     1
 70
     1
  0
VERTEX
  5
591
100
AcDbEntity
  8
0
100
AcDbVertex
100
AcDb2dVertex
 10
448.80000000
 20
-3.00000000
 30
0.0
  0
VERTEX
  5
592
100
AcDbEntity
  8
0
100
AcDbVertex
100
AcDb2dVertex
 10
440.60000000
 20
-3.00000000
 30
0.0
  0
SEQEND
  5
593
100
AcDbEntity
  8
0
  0
POLYLINE
  5
594
100
AcDbEntity
  8
0
100
AcDb2dPolyline
 66
     1
 70
     1
  0
VERTEX
  5
595
100
AcDbEntity
  8
0
100
AcDbVertex
100
AcDb2dVertex
 10
448.80000000
 20
2.45000000
 30
0.0
  0
VERTEX
  5
596
100
AcDbEntity
  8
0
100
AcDbVertex
100
AcDb2dVertex
 10
448.80000000
 20
-3.00000000
 30
0.0
  0
SEQEND
  5
597
100
AcDbEntity
  8
0
  0
POLYLINE
  5
598
100
AcDbEntity
  8
0
100
AcDb2dPolyline
 66
     1
 70
     1
  0
VERTEX
  5
599
100
AcDbEntity
  8
0
100
AcDbVertex
100
AcDb2dVertex
 10
451.20000000
 20
2.45000000
 30
0.0
  0
VERTEX
  5
59A
100
AcDbEntity
  8
0
100
AcDbVertex
100
AcDb2dVertex
 10
448.80000000
 20
2.45000000
 30
0.0
  0
SEQEND
  5
59B
100
AcDbEntity
  8
0
  0
POLYLINE
  5
59C
100
AcDbEntity
  8
0
100
AcDb2dPolyline
 66
     1
 70
     1
  0
VERTEX
  5
59D
100
AcDbEntity
  8
0
100
AcDbVertex
100
AcDb2dVertex
 10
451.20000000
 20
-6.00000000
 30
0.0
  0
VERTEX
  5
59E
100
AcDbEntity
  8
0
100
AcDbVertex
100
AcDb2dVertex
 10
451.20000000
 20
2.45000000
 30
0.0
  0
SEQEND
  5
59F
100
AcDbEntity
  8
0
  0
POLYLINE
  5
5A0
100
AcDbEntity
  8
0
100
AcDb2dPolyline
 66
     1
 70
     1
  0
VERTEX
  5
5A1
100
AcDbEntity
  8
0
100
AcDbVertex
100
AcDb2dVertex
 10
440.30000000
 20
-6.00000000
 30
0.0
  0
VERTEX
  5
5A2
100
AcDbEntity
  8
0
100
AcDbVertex
100
AcDb2dVertex
 10
451.20000000
 20
-6.00000000
 30
0.0
  0
VERTEX
  5
5A3
100
AcDbEntity
  8
0
100
AcDbVertex
100
AcDb2dVertex
 10
440.30000000
 20
-6.00000000
 30
0.0
  0
VERTEX
  5
5A4
100
AcDbEntity
  8
0
100
AcDbVertex
100
AcDb2dVertex
 10
440.30000000
 20
-14.50000000
 30
0.0
  0
SEQEND
  5
5A5
100
AcDbEntity
  8
0
  0
POLYLINE
  5
5A6
100
AcDbEntity
  8
0
100
AcDb2dPolyline
 66
     1
 70
     1
  0
VERTEX
  5
5A7
100
AcDbEntity
  8
0
100
AcDbVertex
100
AcDb2dVertex
 10
439.00000000
 20
-14.50000000
 30
0.0
  0
VERTEX
  5
5A8
100
AcDbEntity
  8
0
100
AcDbVertex
100
AcDb2dVertex
 10
440.30000000
 20
-14.50000000
 30
0.0
  0
SEQEND
  5
5A9
100
AcDbEntity
  8
0
  0
POLYLINE
  5
5AA
100
AcDbEntity
  8
0
100
AcDb2dPolyline
 66
     1
 70
     1
  0
VERTEX
  5
5AB
100
AcDbEntity
  8
0
100
AcDbVertex
100
AcDb2dVertex
 10
439.00000000
 20
-12.80000000
 30
0.0
  0
VERTEX
  5
5AC
100
AcDbEntity
  8
0
100
AcDbVertex
100
AcDb2dVertex
 10
439.00000000
 20
-14.50000000
 30
0.0
  0
SEQEND
  5
5AD
100
AcDbEntity
  8
0
  0
POINT
  5
5AE
100
AcDbEntity
  8
0
100
AcDbPoint
 10
413.00000000
 20
-.00000000
 30
0.0
  0
POINT
  5
5AF
100
AcDbEntity
  8
0
100
AcDbPoint
 10
413.00000000
 20
-.00000000
 30
0.0
  0
ENDBLK
  5
5B0
100
AcDbEntity
  8
0
100
AcDbBlockEnd
  0
BLOCK
  5
5B1
100
AcDbEntity
  8
0
100
AcDbBlockBegin
  2
524834352_00036
 70
    64
 10
0.0
 20
0.0
 30
0.0
  3
524834352_00036
  0
INSERT
  5
5B2
100
AcDbEntity
  8
0
100
AcDbBlockReference
  2
_524834352_00037
 10
-3.50000002
 20
-44.74999999
 30
0.0
  0
ENDBLK
  5
5B3
100
AcDbEntity
  8
0
100
AcDbBlockEnd
  0
BLOCK
  5
5B4
100
AcDbEntity
  8
0
100
AcDbBlockBegin
  2
_524834352_00037
 70
    64
 10
-3.50000002
 20
-44.74999999
 30
0.0
  3
_524834352_00037
  0
POLYLINE
  5
5B5
100
AcDbEntity
  8
0
100
AcDb2dPolyline
 66
     1
 70
     1
  0
VERTEX
  5
5B6
100
AcDbEntity
  8
0
100
AcDbVertex
100
AcDb2dVertex
 10
-3.50000002
 20
-44.74999999
 30
0.0
  0
VERTEX
  5
5B7
100
AcDbEntity
  8
0
100
AcDbVertex
100
AcDb2dVertex
 10
-3.50000002
 20
-61.24999999
 30
0.0
  0
SEQEND
  5
5B8
100
AcDbEntity
  8
0
  0
POLYLINE
  5
5B9
100
AcDbEntity
  8
0
100
AcDb2dPolyline
 66
     1
 70
     1
  0
VERTEX
  5
5BA
100
AcDbEntity
  8
0
100
AcDbVertex
100
AcDb2dVertex
 10
-3.50000002
 20
-61.24999999
 30
0.0
  0
VERTEX
  5
5BB
100
AcDbEntity
  8
0
100
AcDbVertex
100
AcDb2dVertex
 10
0.49999991
 20
-61.24999999
 30
0.0
  0
SEQEND
  5
5BC
100
AcDbEntity
  8
0
  0
POLYLINE
  5
5BD
100
AcDbEntity
  8
0
100
AcDb2dPolyline
 66
     1
 70
     1
  0
VERTEX
  5
5BE
100
AcDbEntity
  8
0
100
AcDbVertex
100
AcDb2dVertex
 10
0.49999991
 20
-61.24999999
 30
0.0
  0
VERTEX
  5
5BF
100
AcDbEntity
  8
0
100
AcDbVertex
100
AcDb2dVertex
 10
0.49999999
 20
-44.75000001
 30
0.0
  0
SEQEND
  5
5C0
100
AcDbEntity
  8
0
  0
POLYLINE
  5
5C1
100
AcDbEntity
  8
0
100
AcDb2dPolyline
 66
     1
 70
     1
  0
VERTEX
  5
5C2
100
AcDbEntity
  8
0
100
AcDbVertex
100
AcDb2dVertex
 10
0.49999999
 20
-44.75000001
 30
0.0
  0
VERTEX
  5
5C3
100
AcDbEntity
  8
0
100
AcDbVertex
100
AcDb2dVertex
 10
15.49999998
 20
-44.75000000
 30
0.0
  0
SEQEND
  5
5C4
100
AcDbEntity
  8
0
  0
POLYLINE
  5
5C5
100
AcDbEntity
  8
0
100
AcDb2dPolyline
 66
     1
 70
     1
  0
VERTEX
  5
5C6
100
AcDbEntity
  8
0
100
AcDbVertex
100
AcDb2dVertex
 10
15.49999998
 20
-44.75000000
 30
0.0
  0
VERTEX
  5
5C7
100
AcDbEntity
  8
0
100
AcDbVertex
100
AcDb2dVertex
 10
23.49999998
 20
-62.75000000
 30
0.0
  0
SEQEND
  5
5C8
100
AcDbEntity
  8
0
  0
POLYLINE
  5
5C9
100
AcDbEntity
  8
0
100
AcDb2dPolyline
 66
     1
 70
     1
  0
VERTEX
  5
5CA
100
AcDbEntity
  8
0
100
AcDbVertex
100
AcDb2dVertex
 10
23.49999998
 20
-62.75000000
 30
0.0
  0
VERTEX
  5
5CB
100
AcDbEntity
  8
0
100
AcDbVertex
100
AcDb2dVertex
 10
23.49999998
 20
-64.75000000
 30
0.0
  0
SEQEND
  5
5CC
100
AcDbEntity
  8
0
  0
POLYLINE
  5
5CD
100
AcDbEntity
  8
0
100
AcDb2dPolyline
 66
     1
 70
     1
  0
VERTEX
  5
5CE
100
AcDbEntity
  8
0
100
AcDbVertex
100
AcDb2dVertex
 10
23.49999998
 20
-64.75000000
 30
0.0
  0
VERTEX
  5
5CF
100
AcDbEntity
  8
0
100
AcDbVertex
100
AcDb2dVertex
 10
-23.50000002
 20
-64.74999991
 30
0.0
  0
SEQEND
  5
5D0
100
AcDbEntity
  8
0
  0
POLYLINE
  5
5D1
100
AcDbEntity
  8
0
100
AcDb2dPolyline
 66
     1
 70
     1
  0
VERTEX
  5
5D2
100
AcDbEntity
  8
0
100
AcDbVertex
100
AcDb2dVertex
 10
-23.50000002
 20
-64.74999991
 30
0.0
  0
VERTEX
  5
5D3
100
AcDbEntity
  8
0
100
AcDbVertex
100
AcDb2dVertex
 10
-23.50000001
 20
-84.25000006
 30
0.0
  0
SEQEND
  5
5D4
100
AcDbEntity
  8
0
  0
POLYLINE
  5
5D5
100
AcDbEntity
  8
0
100
AcDb2dPolyline
 66
     1
 70
     1
  0
VERTEX
  5
5D6
100
AcDbEntity
  8
0
100
AcDbVertex
100
AcDb2dVertex
 10
-23.50000001
 20
-84.25000006
 30
0.0
  0
VERTEX
  5
5D7
100
AcDbEntity
  8
0
100
AcDbVertex
100
AcDb2dVertex
 10
23.50000002
 20
-84.25000000
 30
0.0
  0
SEQEND
  5
5D8
100
AcDbEntity
  8
0
  0
POLYLINE
  5
5D9
100
AcDbEntity
  8
0
100
AcDb2dPolyline
 66
     1
 70
     1
  0
VERTEX
  5
5DA
100
AcDbEntity
  8
0
100
AcDbVertex
100
AcDb2dVertex
 10
23.50000002
 20
-84.25000000
 30
0.0
  0
VERTEX
  5
5DB
100
AcDbEntity
  8
0
100
AcDbVertex
100
AcDb2dVertex
 10
23.50000002
 20
-86.24999999
 30
0.0
  0
SEQEND
  5
5DC
100
AcDbEntity
  8
0
  0
POLYLINE
  5
5DD
100
AcDbEntity
  8
0
100
AcDb2dPolyline
 66
     1
 70
     1
  0
VERTEX
  5
5DE
100
AcDbEntity
  8
0
100
AcDbVertex
100
AcDb2dVertex
 10
23.50000002
 20
-86.24999999
 30
0.0
  0
VERTEX
  5
5DF
100
AcDbEntity
  8
0
100
AcDbVertex
100
AcDb2dVertex
 10
-26.49999998
 20
-86.24999999
 30
0.0
  0
SEQEND
  5
5E0
100
AcDbEntity
  8
0
  0
POLYLINE
  5
5E1
100
AcDbEntity
  8
0
100
AcDb2dPolyline
 66
     1
 70
     1
  0
VERTEX
  5
5E2
100
AcDbEntity
  8
0
100
AcDbVertex
100
AcDb2dVertex
 10
-26.49999998
 20
-86.24999999
 30
0.0
  0
VERTEX
  5
5E3
100
AcDbEntity
  8
0
100
AcDbVertex
100
AcDb2dVertex
 10
-26.49999997
 20
-62.74999990
 30
0.0
  0
SEQEND
  5
5E4
100
AcDbEntity
  8
0
  0
POLYLINE
  5
5E5
100
AcDbEntity
  8
0
100
AcDb2dPolyline
 66
     1
 70
     1
  0
VERTEX
  5
5E6
100
AcDbEntity
  8
0
100
AcDbVertex
100
AcDb2dVertex
 10
-26.49999997
 20
-62.74999990
 30
0.0
  0
VERTEX
  5
5E7
100
AcDbEntity
  8
0
100
AcDbVertex
100
AcDb2dVertex
 10
-18.50000002
 20
-44.74999999
 30
0.0
  0
SEQEND
  5
5E8
100
AcDbEntity
  8
0
  0
POLYLINE
  5
5E9
100
AcDbEntity
  8
0
100
AcDb2dPolyline
 66
     1
 70
     1
  0
VERTEX
  5
5EA
100
AcDbEntity
  8
0
100
AcDbVertex
100
AcDb2dVertex
 10
-18.50000002
 20
-44.74999999
 30
0.0
  0
VERTEX
  5
5EB
100
AcDbEntity
  8
0
100
AcDbVertex
100
AcDb2dVertex
 10
-3.50000002
 20
-44.74999999
 30
0.0
  0
SEQEND
  5
5EC
100
AcDbEntity
  8
0
  0
POINT
  5
5ED
100
AcDbEntity
  8
0
100
AcDbPoint
 10
-0.00000001
 20
-74.37500000
 30
0.0
  0
POINT
  5
5EE
100
AcDbEntity
  8
0
100
AcDbPoint
 10
-0.00000001
 20
-74.37500000
 30
0.0
  0
ENDBLK
  5
5EF
100
AcDbEntity
  8
0
100
AcDbBlockEnd
  0
BLOCK
  5
5F0
100
AcDbEntity
  8
0
100
AcDbBlockBegin
  2
524834525_00038
 70
    64
 10
0.0
 20
0.0
 30
0.0
  3
524834525_00038
  0
INSERT
  5
5F1
100
AcDbEntity
  8
0
100
AcDbBlockReference
  2
_524834525_00039
 10
-107.05000447
 20
-79.74999117
 30
0.0
  0
ENDBLK
  5
5F2
100
AcDbEntity
  8
0
100
AcDbBlockEnd
  0
BLOCK
  5
5F3
100
AcDbEntity
  8
0
100
AcDbBlockBegin
  2
_524834525_00039
 70
    64
 10
-107.05000447
 20
-79.74999117
 30
0.0
  3
_524834525_00039
  0
POLYLINE
  5
5F4
100
AcDbEntity
  8
0
100
AcDb2dPolyline
 66
     1
 70
     1
  0
VERTEX
  5
5F5
100
AcDbEntity
  8
0
100
AcDbVertex
100
AcDb2dVertex
 10
-107.05000447
 20
-79.74999117
 30
0.0
  0
VERTEX
  5
5F6
100
AcDbEntity
  8
0
100
AcDbVertex
100
AcDb2dVertex
 10
-107.05000447
 20
-77.74999118
 30
0.0
  0
SEQEND
  5
5F7
100
AcDbEntity
  8
0
  0
POLYLINE
  5
5F8
100
AcDbEntity
  8
0
100
AcDb2dPolyline
 66
     1
 70
     1
  0
VERTEX
  5
5F9
100
AcDbEntity
  8
0
100
AcDbVertex
100
AcDb2dVertex
 10
-107.05000447
 20
-77.74999118
 30
0.0
  0
VERTEX
  5
5FA
100
AcDbEntity
  8
0
100
AcDbVertex
100
AcDb2dVertex
 10
-99.05000446
 20
-44.74999118
 30
0.0
  0
SEQEND
  5
5FB
100
AcDbEntity
  8
0
  0
POLYLINE
  5
5FC
100
AcDbEntity
  8
0
100
AcDb2dPolyline
 66
     1
 70
     1
  0
VERTEX
  5
5FD
100
AcDbEntity
  8
0
100
AcDbVertex
100
AcDb2dVertex
 10
-99.05000446
 20
-44.74999118
 30
0.0
  0
VERTEX
  5
5FE
100
AcDbEntity
  8
0
100
AcDbVertex
100
AcDb2dVertex
 10
-84.05000446
 20
-44.74999118
 30
0.0
  0
SEQEND
  5
5FF
100
AcDbEntity
  8
0
  0
POLYLINE
  5
600
100
AcDbEntity
  8
0
100
AcDb2dPolyline
 66
     1
 70
     1
  0
VERTEX
  5
601
100
AcDbEntity
  8
0
100
AcDbVertex
100
AcDb2dVertex
 10
-84.05000446
 20
-44.74999118
 30
0.0
  0
VERTEX
  5
602
100
AcDbEntity
  8
0
100
AcDbVertex
100
AcDb2dVertex
 10
-84.05000445
 20
-61.24999118
 30
0.0
  0
SEQEND
  5
603
100
AcDbEntity
  8
0
  0
POLYLINE
  5
604
100
AcDbEntity
  8
0
100
AcDb2dPolyline
 66
     1
 70
     1
  0
VERTEX
  5
605
100
AcDbEntity
  8
0
100
AcDbVertex
100
AcDb2dVertex
 10
-84.05000445
 20
-61.24999118
 30
0.0
  0
VERTEX
  5
606
100
AcDbEntity
  8
0
100
AcDbVertex
100
AcDb2dVertex
 10
-80.05000444
 20
-61.24999118
 30
0.0
  0
SEQEND
  5
607
100
AcDbEntity
  8
0
  0
POLYLINE
  5
608
100
AcDbEntity
  8
0
100
AcDb2dPolyline
 66
     1
 70
     1
  0
VERTEX
  5
609
100
AcDbEntity
  8
0
100
AcDbVertex
100
AcDb2dVertex
 10
-80.05000444
 20
-61.24999118
 30
0.0
  0
VERTEX
  5
60A
100
AcDbEntity
  8
0
100
AcDbVertex
100
AcDb2dVertex
 10
-80.05000446
 20
-44.74999115
 30
0.0
  0
SEQEND
  5
60B
100
AcDbEntity
  8
0
  0
POLYLINE
  5
60C
100
AcDbEntity
  8
0
100
AcDb2dPolyline
 66
     1
 70
     1
  0
VERTEX
  5
60D
100
AcDbEntity
  8
0
100
AcDbVertex
100
AcDb2dVertex
 10
-80.05000446
 20
-44.74999115
 30
0.0
  0
VERTEX
  5
60E
100
AcDbEntity
  8
0
100
AcDbVertex
100
AcDb2dVertex
 10
-65.05000447
 20
-44.74999115
 30
0.0
  0
SEQEND
  5
60F
100
AcDbEntity
  8
0
  0
POLYLINE
  5
610
100
AcDbEntity
  8
0
100
AcDb2dPolyline
 66
     1
 70
     1
  0
VERTEX
  5
611
100
AcDbEntity
  8
0
100
AcDbVertex
100
AcDb2dVertex
 10
-57.05000446
 20
-77.74999127
 30
0.0
  0
VERTEX
  5
612
100
AcDbEntity
  8
0
100
AcDbVertex
100
AcDb2dVertex
 10
-65.05000447
 20
-44.74999115
 30
0.0
  0
VERTEX
  5
613
100
AcDbEntity
  8
0
100
AcDbVertex
100
AcDb2dVertex
 10
-57.05000446
 20
-77.74999127
 30
0.0
  0
VERTEX
  5
614
100
AcDbEntity
  8
0
100
AcDbVertex
100
AcDb2dVertex
 10
-57.05000445
 20
-101.24999116
 30
0.0
  0
SEQEND
  5
615
100
AcDbEntity
  8
0
  0
POLYLINE
  5
616
100
AcDbEntity
  8
0
100
AcDb2dPolyline
 66
     1
 70
     1
  0
VERTEX
  5
617
100
AcDbEntity
  8
0
100
AcDbVertex
100
AcDb2dVertex
 10
-57.05000445
 20
-101.24999116
 30
0.0
  0
VERTEX
  5
618
100
AcDbEntity
  8
0
100
AcDbVertex
100
AcDb2dVertex
 10
-107.05000449
 20
-101.24999116
 30
0.0
  0
SEQEND
  5
619
100
AcDbEntity
  8
0
  0
POLYLINE
  5
61A
100
AcDbEntity
  8
0
100
AcDb2dPolyline
 66
     1
 70
     1
  0
VERTEX
  5
61B
100
AcDbEntity
  8
0
100
AcDbVertex
100
AcDb2dVertex
 10
-107.05000449
 20
-101.24999116
 30
0.0
  0
VERTEX
  5
61C
100
AcDbEntity
  8
0
100
AcDbVertex
100
AcDb2dVertex
 10
-107.05000449
 20
-99.24999116
 30
0.0
  0
SEQEND
  5
61D
100
AcDbEntity
  8
0
  0
POLYLINE
  5
61E
100
AcDbEntity
  8
0
100
AcDb2dPolyline
 66
     1
 70
     1
  0
VERTEX
  5
61F
100
AcDbEntity
  8
0
100
AcDbVertex
100
AcDb2dVertex
 10
-107.05000449
 20
-99.24999116
 30
0.0
  0
VERTEX
  5
620
100
AcDbEntity
  8
0
100
AcDbVertex
100
AcDb2dVertex
 10
-60.05000450
 20
-99.24999110
 30
0.0
  0
SEQEND
  5
621
100
AcDbEntity
  8
0
  0
POLYLINE
  5
622
100
AcDbEntity
  8
0
100
AcDb2dPolyline
 66
     1
 70
     1
  0
VERTEX
  5
623
100
AcDbEntity
  8
0
100
AcDbVertex
100
AcDb2dVertex
 10
-60.05000450
 20
-99.24999110
 30
0.0
  0
VERTEX
  5
624
100
AcDbEntity
  8
0
100
AcDbVertex
100
AcDb2dVertex
 10
-60.05000448
 20
-79.74999126
 30
0.0
  0
SEQEND
  5
625
100
AcDbEntity
  8
0
  0
POLYLINE
  5
626
100
AcDbEntity
  8
0
100
AcDb2dPolyline
 66
     1
 70
     1
  0
VERTEX
  5
627
100
AcDbEntity
  8
0
100
AcDbVertex
100
AcDb2dVertex
 10
-60.05000448
 20
-79.74999126
 30
0.0
  0
VERTEX
  5
628
100
AcDbEntity
  8
0
100
AcDbVertex
100
AcDb2dVertex
 10
-107.05000447
 20
-79.74999117
 30
0.0
  0
SEQEND
  5
629
100
AcDbEntity
  8
0
  0
POINT
  5
62A
100
AcDbEntity
  8
0
100
AcDbPoint
 10
-83.55000448
 20
-89.37499117
 30
0.0
  0
POINT
  5
62B
100
AcDbEntity
  8
0
100
AcDbPoint
 10
-83.55000448
 20
-89.37499117
 30
0.0
  0
ENDBLK
  5
62C
100
AcDbEntity
  8
0
100
AcDbBlockEnd
  0
BLOCK
  5
62D
100
AcDbEntity
  8
0
100
AcDbBlockBegin
  2
524834525_00040
 70
    64
 10
0.0
 20
0.0
 30
0.0
  3
524834525_00040
  0
INSERT
  5
62E
100
AcDbEntity
  8
0
100
AcDbBlockReference
  2
_524834525_00041
 10
-140.60000899
 20
-114.24999112
 30
0.0
  0
ENDBLK
  5
62F
100
AcDbEntity
  8
0
100
AcDbBlockEnd
  0
BLOCK
  5
630
100
AcDbEntity
  8
0
100
AcDbBlockBegin
  2
_524834525_00041
 70
    64
 10
-140.60000899
 20
-114.24999112
 30
0.0
  3
_524834525_00041
  0
POLYLINE
  5
631
100
AcDbEntity
  8
0
100
AcDb2dPolyline
 66
     1
 70
     1
  0
VERTEX
  5
632
100
AcDbEntity
  8
0
100
AcDbVertex
100
AcDb2dVertex
 10
-140.60000899
 20
-114.24999112
 30
0.0
  0
VERTEX
  5
633
100
AcDbEntity
  8
0
100
AcDbVertex
100
AcDb2dVertex
 10
-140.60000898
 20
-94.74999129
 30
0.0
  0
SEQEND
  5
634
100
AcDbEntity
  8
0
  0
POLYLINE
  5
635
100
AcDbEntity
  8
0
100
AcDb2dPolyline
 66
     1
 70
     1
  0
VERTEX
  5
636
100
AcDbEntity
  8
0
100
AcDbVertex
100
AcDb2dVertex
 10
-140.60000898
 20
-94.74999129
 30
0.0
  0
VERTEX
  5
637
100
AcDbEntity
  8
0
100
AcDbVertex
100
AcDb2dVertex
 10
-187.60000896
 20
-94.74999119
 30
0.0
  0
SEQEND
  5
638
100
AcDbEntity
  8
0
  0
POLYLINE
  5
639
100
AcDbEntity
  8
0
100
AcDb2dPolyline
 66
     1
 70
     1
  0
VERTEX
  5
63A
100
AcDbEntity
  8
0
100
AcDbVertex
100
AcDb2dVertex
 10
-187.60000896
 20
-94.74999119
 30
0.0
  0
VERTEX
  5
63B
100
AcDbEntity
  8
0
100
AcDbVertex
100
AcDb2dVertex
 10
-187.60000897
 20
-92.74999120
 30
0.0
  0
SEQEND
  5
63C
100
AcDbEntity
  8
0
  0
POLYLINE
  5
63D
100
AcDbEntity
  8
0
100
AcDb2dPolyline
 66
     1
 70
     1
  0
VERTEX
  5
63E
100
AcDbEntity
  8
0
100
AcDbVertex
100
AcDb2dVertex
 10
-187.60000897
 20
-92.74999120
 30
0.0
  0
VERTEX
  5
63F
100
AcDbEntity
  8
0
100
AcDbVertex
100
AcDb2dVertex
 10
-179.60000897
 20
-44.74999120
 30
0.0
  0
SEQEND
  5
640
100
AcDbEntity
  8
0
  0
POLYLINE
  5
641
100
AcDbEntity
  8
0
100
AcDb2dPolyline
 66
     1
 70
     1
  0
VERTEX
  5
642
100
AcDbEntity
  8
0
100
AcDbVertex
100
AcDb2dVertex
 10
-179.60000897
 20
-44.74999120
 30
0.0
  0
VERTEX
  5
643
100
AcDbEntity
  8
0
100
AcDbVertex
100
AcDb2dVertex
 10
-164.60000897
 20
-44.74999120
 30
0.0
  0
SEQEND
  5
644
100
AcDbEntity
  8
0
  0
POLYLINE
  5
645
100
AcDbEntity
  8
0
100
AcDb2dPolyline
 66
     1
 70
     1
  0
VERTEX
  5
646
100
AcDbEntity
  8
0
100
AcDbVertex
100
AcDb2dVertex
 10
-164.60000897
 20
-44.74999120
 30
0.0
  0
VERTEX
  5
647
100
AcDbEntity
  8
0
100
AcDbVertex
100
AcDb2dVertex
 10
-164.60000896
 20
-61.24999120
 30
0.0
  0
SEQEND
  5
648
100
AcDbEntity
  8
0
  0
POLYLINE
  5
649
100
AcDbEntity
  8
0
100
AcDb2dPolyline
 66
     1
 70
     1
  0
VERTEX
  5
64A
100
AcDbEntity
  8
0
100
AcDbVertex
100
AcDb2dVertex
 10
-164.60000896
 20
-61.24999120
 30
0.0
  0
VERTEX
  5
64B
100
AcDbEntity
  8
0
100
AcDbVertex
100
AcDb2dVertex
 10
-160.60000895
 20
-61.24999120
 30
0.0
  0
SEQEND
  5
64C
100
AcDbEntity
  8
0
  0
POLYLINE
  5
64D
100
AcDbEntity
  8
0
100
AcDb2dPolyline
 66
     1
 70
     1
  0
VERTEX
  5
64E
100
AcDbEntity
  8
0
100
AcDbVertex
100
AcDb2dVertex
 10
-160.60000895
 20
-61.24999120
 30
0.0
  0
VERTEX
  5
64F
100
AcDbEntity
  8
0
100
AcDbVertex
100
AcDb2dVertex
 10
-160.60000896
 20
-44.74999117
 30
0.0
  0
SEQEND
  5
650
100
AcDbEntity
  8
0
  0
POLYLINE
  5
651
100
AcDbEntity
  8
0
100
AcDb2dPolyline
 66
     1
 70
     1
  0
VERTEX
  5
652
100
AcDbEntity
  8
0
100
AcDbVertex
100
AcDb2dVertex
 10
-160.60000896
 20
-44.74999117
 30
0.0
  0
VERTEX
  5
653
100
AcDbEntity
  8
0
100
AcDbVertex
100
AcDb2dVertex
 10
-145.60000897
 20
-44.74999117
 30
0.0
  0
SEQEND
  5
654
100
AcDbEntity
  8
0
  0
POLYLINE
  5
655
100
AcDbEntity
  8
0
100
AcDb2dPolyline
 66
     1
 70
     1
  0
VERTEX
  5
656
100
AcDbEntity
  8
0
100
AcDbVertex
100
AcDb2dVertex
 10
-145.60000897
 20
-44.74999117
 30
0.0
  0
VERTEX
  5
657
100
AcDbEntity
  8
0
100
AcDbVertex
100
AcDb2dVertex
 10
-137.60000895
 20
-92.74999129
 30
0.0
  0
SEQEND
  5
658
100
AcDbEntity
  8
0
  0
POLYLINE
  5
659
100
AcDbEntity
  8
0
100
AcDb2dPolyline
 66
     1
 70
     1
  0
VERTEX
  5
65A
100
AcDbEntity
  8
0
100
AcDbVertex
100
AcDb2dVertex
 10
-137.60000895
 20
-92.74999129
 30
0.0
  0
VERTEX
  5
65B
100
AcDbEntity
  8
0
100
AcDbVertex
100
AcDb2dVertex
 10
-137.60000894
 20
-116.24999118
 30
0.0
  0
SEQEND
  5
65C
100
AcDbEntity
  8
0
  0
POLYLINE
  5
65D
100
AcDbEntity
  8
0
100
AcDb2dPolyline
 66
     1
 70
     1
  0
VERTEX
  5
65E
100
AcDbEntity
  8
0
100
AcDbVertex
100
AcDb2dVertex
 10
-137.60000894
 20
-116.24999118
 30
0.0
  0
VERTEX
  5
65F
100
AcDbEntity
  8
0
100
AcDbVertex
100
AcDb2dVertex
 10
-187.60000898
 20
-116.24999118
 30
0.0
  0
SEQEND
  5
660
100
AcDbEntity
  8
0
  0
POLYLINE
  5
661
100
AcDbEntity
  8
0
100
AcDb2dPolyline
 66
     1
 70
     1
  0
VERTEX
  5
662
100
AcDbEntity
  8
0
100
AcDbVertex
100
AcDb2dVertex
 10
-187.60000898
 20
-116.24999118
 30
0.0
  0
VERTEX
  5
663
100
AcDbEntity
  8
0
100
AcDbVertex
100
AcDb2dVertex
 10
-187.60000898
 20
-114.24999118
 30
0.0
  0
SEQEND
  5
664
100
AcDbEntity
  8
0
  0
POLYLINE
  5
665
100
AcDbEntity
  8
0
100
AcDb2dPolyline
 66
     1
 70
     1
  0
VERTEX
  5
666
100
AcDbEntity
  8
0
100
AcDbVertex
100
AcDb2dVertex
 10
-187.60000898
 20
-114.24999118
 30
0.0
  0
VERTEX
  5
667
100
AcDbEntity
  8
0
100
AcDbVertex
100
AcDb2dVertex
 10
-140.60000899
 20
-114.24999112
 30
0.0
  0
SEQEND
  5
668
100
AcDbEntity
  8
0
  0
POINT
  5
669
100
AcDbEntity
  8
0
100
AcDbPoint
 10
-164.10000898
 20
-104.37499119
 30
0.0
  0
POINT
  5
66A
100
AcDbEntity
  8
0
100
AcDbPoint
 10
-164.10000898
 20
-104.37499119
 30
0.0
  0
ENDBLK
  5
66B
100
AcDbEntity
  8
0
100
AcDbBlockEnd
  0
BLOCK
  5
66C
100
AcDbEntity
  8
0
100
AcDbBlockBegin
  2
524834870_00042
 70
    64
 10
0.0
 20
0.0
 30
0.0
  3
524834870_00042
  0
INSERT
  5
66D
100
AcDbEntity
  8
0
100
AcDbBlockReference
  2
_524834870_00043
 10
82.88534154
 20
-84.00078920
 30
0.0
  0
ENDBLK
  5
66E
100
AcDbEntity
  8
0
100
AcDbBlockEnd
  0
BLOCK
  5
66F
100
AcDbEntity
  8
0
100
AcDbBlockBegin
  2
_524834870_00043
 70
    64
 10
82.88534154
 20
-84.00078920
 30
0.0
  3
_524834870_00043
  0
POLYLINE
  5
670
100
AcDbEntity
  8
0
100
AcDb2dPolyline
 66
     1
 70
     1
  0
VERTEX
  5
671
100
AcDbEntity
  8
0
100
AcDbVertex
100
AcDb2dVertex
 10
82.88534154
 20
-84.00078920
 30
0.0
  0
VERTEX
  5
672
100
AcDbEntity
  8
0
100
AcDbVertex
100
AcDb2dVertex
 10
36.50004122
 20
-84.00078920
 30
0.0
  0
SEQEND
  5
673
100
AcDbEntity
  8
0
  0
POLYLINE
  5
674
100
AcDbEntity
  8
0
100
AcDb2dPolyline
 66
     1
 70
     1
  0
VERTEX
  5
675
100
AcDbEntity
  8
0
100
AcDbVertex
100
AcDb2dVertex
 10
36.50004122
 20
-84.00078920
 30
0.0
  0
VERTEX
  5
676
100
AcDbEntity
  8
0
100
AcDbVertex
100
AcDb2dVertex
 10
36.50004122
 20
-65.00078920
 30
0.0
  0
SEQEND
  5
677
100
AcDbEntity
  8
0
  0
POLYLINE
  5
678
100
AcDbEntity
  8
0
100
AcDb2dPolyline
 66
     1
 70
     1
  0
VERTEX
  5
679
100
AcDbEntity
  8
0
100
AcDbVertex
100
AcDb2dVertex
 10
36.50004122
 20
-65.00078920
 30
0.0
  0
VERTEX
  5
67A
100
AcDbEntity
  8
0
100
AcDbVertex
100
AcDb2dVertex
 10
82.88534154
 20
-65.00078920
 30
0.0
  0
SEQEND
  5
67B
100
AcDbEntity
  8
0
  0
POLYLINE
  5
67C
100
AcDbEntity
  8
0
100
AcDb2dPolyline
 66
     1
 70
     1
  0
VERTEX
  5
67D
100
AcDbEntity
  8
0
100
AcDbVertex
100
AcDb2dVertex
 10
82.88534154
 20
-65.00078920
 30
0.0
  0
VERTEX
  5
67E
100
AcDbEntity
  8
0
100
AcDbVertex
100
AcDb2dVertex
 10
82.88534154
 20
-70.50078920
 30
0.0
  0
SEQEND
  5
67F
100
AcDbEntity
  8
0
  0
POLYLINE
  5
680
100
AcDbEntity
  8
0
100
AcDb2dPolyline
 66
     1
 70
     1
  0
VERTEX
  5
681
100
AcDbEntity
  8
0
100
AcDbVertex
100
AcDb2dVertex
 10
38.50004122
 20
-70.50078920
 30
0.0
  0
VERTEX
  5
682
100
AcDbEntity
  8
0
100
AcDbVertex
100
AcDb2dVertex
 10
82.88534154
 20
-70.50078920
 30
0.0
  0
SEQEND
  5
683
100
AcDbEntity
  8
0
  0
POLYLINE
  5
684
100
AcDbEntity
  8
0
100
AcDb2dPolyline
 66
     1
 70
     1
  0
VERTEX
  5
685
100
AcDbEntity
  8
0
100
AcDbVertex
100
AcDb2dVertex
 10
38.50004122
 20
-78.50078920
 30
0.0
  0
VERTEX
  5
686
100
AcDbEntity
  8
0
100
AcDbVertex
100
AcDb2dVertex
 10
38.50004122
 20
-70.50078920
 30
0.0
  0
SEQEND
  5
687
100
AcDbEntity
  8
0
  0
POLYLINE
  5
688
100
AcDbEntity
  8
0
100
AcDb2dPolyline
 66
     1
 70
     1
  0
VERTEX
  5
689
100
AcDbEntity
  8
0
100
AcDbVertex
100
AcDb2dVertex
 10
82.88534154
 20
-78.50078920
 30
0.0
  0
VERTEX
  5
68A
100
AcDbEntity
  8
0
100
AcDbVertex
100
AcDb2dVertex
 10
38.50004122
 20
-78.50078920
 30
0.0
  0
VERTEX
  5
68B
100
AcDbEntity
  8
0
100
AcDbVertex
100
AcDb2dVertex
 10
82.88534154
 20
-78.50078920
 30
0.0
  0
VERTEX
  5
68C
100
AcDbEntity
  8
0
100
AcDbVertex
100
AcDb2dVertex
 10
82.88534154
 20
-84.00078920
 30
0.0
  0
SEQEND
  5
68D
100
AcDbEntity
  8
0
  0
POINT
  5
68E
100
AcDbEntity
  8
0
100
AcDbPoint
 10
59.18199999
 20
-74.50128621
 30
0.0
  0
POINT
  5
68F
100
AcDbEntity
  8
0
100
AcDbPoint
 10
59.18199999
 20
-74.50128621
 30
0.0
  0
ENDBLK
  5
690
100
AcDbEntity
  8
0
100
AcDbBlockEnd
  0
BLOCK
  5
691
100
AcDbEntity
  8
0
100
AcDbBlockBegin
  2
524834870_00044
 70
    64
 10
0.0
 20
0.0
 30
0.0
  3
524834870_00044
  0
INSERT
  5
692
100
AcDbEntity
  8
0
100
AcDbBlockReference
  2
_524834870_00045
 10
145.88310404
 20
-76.49914780
 30
0.0
  0
ENDBLK
  5
693
100
AcDbEntity
  8
0
100
AcDbBlockEnd
  0
BLOCK
  5
694
100
AcDbEntity
  8
0
100
AcDbBlockBegin
  2
_524834870_00045
 70
    64
 10
145.88310404
 20
-76.49914780
 30
0.0
  3
_524834870_00045
  0
POLYLINE
  5
695
100
AcDbEntity
  8
0
100
AcDb2dPolyline
 66
     1
 70
     1
  0
VERTEX
  5
696
100
AcDbEntity
  8
0
100
AcDbVertex
100
AcDb2dVertex
 10
145.88310404
 20
-76.49914780
 30
0.0
  0
VERTEX
  5
697
100
AcDbEntity
  8
0
100
AcDbVertex
100
AcDb2dVertex
 10
101.49780372
 20
-76.49914780
 30
0.0
  0
VERTEX
  5
698
100
AcDbEntity
  8
0
100
AcDbVertex
100
AcDb2dVertex
 10
145.88310404
 20
-76.49914780
 30
0.0
  0
VERTEX
  5
699
100
AcDbEntity
  8
0
100
AcDbVertex
100
AcDb2dVertex
 10
145.88310404
 20
-83.99914780
 30
0.0
  0
SEQEND
  5
69A
100
AcDbEntity
  8
0
  0
POLYLINE
  5
69B
100
AcDbEntity
  8
0
100
AcDb2dPolyline
 66
     1
 70
     1
  0
VERTEX
  5
69C
100
AcDbEntity
  8
0
100
AcDbVertex
100
AcDb2dVertex
 10
145.88310404
 20
-83.99914780
 30
0.0
  0
VERTEX
  5
69D
100
AcDbEntity
  8
0
100
AcDbVertex
100
AcDb2dVertex
 10
99.49780372
 20
-83.99914780
 30
0.0
  0
SEQEND
  5
69E
100
AcDbEntity
  8
0
  0
POLYLINE
  5
69F
100
AcDbEntity
  8
0
100
AcDb2dPolyline
 66
     1
 70
     1
  0
VERTEX
  5
6A0
100
AcDbEntity
  8
0
100
AcDbVertex
100
AcDb2dVertex
 10
99.49780372
 20
-83.99914780
 30
0.0
  0
VERTEX
  5
6A1
100
AcDbEntity
  8
0
100
AcDbVertex
100
AcDb2dVertex
 10
99.49780372
 20
-64.99914780
 30
0.0
  0
SEQEND
  5
6A2
100
AcDbEntity
  8
0
  0
POLYLINE
  5
6A3
100
AcDbEntity
  8
0
100
AcDb2dPolyline
 66
     1
 70
     1
  0
VERTEX
  5
6A4
100
AcDbEntity
  8
0
100
AcDbVertex
100
AcDb2dVertex
 10
99.49780372
 20
-64.99914780
 30
0.0
  0
VERTEX
  5
6A5
100
AcDbEntity
  8
0
100
AcDbVertex
100
AcDb2dVertex
 10
145.88310404
 20
-64.99914780
 30
0.0
  0
SEQEND
  5
6A6
100
AcDbEntity
  8
0
  0
POLYLINE
  5
6A7
100
AcDbEntity
  8
0
100
AcDb2dPolyline
 66
     1
 70
     1
  0
VERTEX
  5
6A8
100
AcDbEntity
  8
0
100
AcDbVertex
100
AcDb2dVertex
 10
145.88310404
 20
-64.99914780
 30
0.0
  0
VERTEX
  5
6A9
100
AcDbEntity
  8
0
100
AcDbVertex
100
AcDb2dVertex
 10
145.88310404
 20
-72.49914780
 30
0.0
  0
SEQEND
  5
6AA
100
AcDbEntity
  8
0
  0
POLYLINE
  5
6AB
100
AcDbEntity
  8
0
100
AcDb2dPolyline
 66
     1
 70
     1
  0
VERTEX
  5
6AC
100
AcDbEntity
  8
0
100
AcDbVertex
100
AcDb2dVertex
 10
101.49780372
 20
-72.49914780
 30
0.0
  0
VERTEX
  5
6AD
100
AcDbEntity
  8
0
100
AcDbVertex
100
AcDb2dVertex
 10
145.88310404
 20
-72.49914780
 30
0.0
  0
SEQEND
  5
6AE
100
AcDbEntity
  8
0
  0
POLYLINE
  5
6AF
100
AcDbEntity
  8
0
100
AcDb2dPolyline
 66
     1
 70
     1
  0
VERTEX
  5
6B0
100
AcDbEntity
  8
0
100
AcDbVertex
100
AcDb2dVertex
 10
101.49780372
 20
-76.49914780
 30
0.0
  0
VERTEX
  5
6B1
100
AcDbEntity
  8
0
100
AcDbVertex
100
AcDb2dVertex
 10
101.49780372
 20
-72.49914780
 30
0.0
  0
SEQEND
  5
6B2
100
AcDbEntity
  8
0
  0
POINT
  5
6B3
100
AcDbEntity
  8
0
100
AcDbPoint
 10
122.17976249
 20
-74.49964482
 30
0.0
  0
POINT
  5
6B4
100
AcDbEntity
  8
0
100
AcDbPoint
 10
122.17976249
 20
-74.49964482
 30
0.0
  0
ENDBLK
  5
6B5
100
AcDbEntity
  8
0
100
AcDbBlockEnd
  0
BLOCK
  5
6B6
100
AcDbEntity
  8
0
100
AcDbBlockBegin
  2
Teil_00046
 70
    64
 10
0.0
 20
0.0
 30
0.0
  3
Teil_00046
  0
INSERT
  5
6B7
100
AcDbEntity
  8
0
100
AcDbBlockReference
  2
_Teil_00047
 10
-190.55000000
 20
38.62707627
 30
0.0
  0
INSERT
  5
6B8
100
AcDbEntity
  8
0
100
AcDbBlockReference
  2
Teil_00048
 10
0.0
 20
0.0
 30
0.0
  0
ENDBLK
  5
6B9
100
AcDbEntity
  8
0
100
AcDbBlockEnd
  0
BLOCK
  5
6BA
100
AcDbEntity
  8
0
100
AcDbBlockBegin
  2
_Teil_00047
 70
    64
 10
-190.55000000
 20
38.62707627
 30
0.0
  3
_Teil_00047
  0
ARC
  5
6BB
100
AcDbEntity
  8
0
100
AcDbCircle
 10
-192.80000000
 20
30.95000000
 30
0.0
 40
8.00000000
100
AcDbArc
 50
53.576426358
 51
73.665177219
  0
ARC
  5
6BC
100
AcDbEntity
  8
0
100
AcDbCircle
 10
-192.80000000
 20
30.95000000
 30
0.0
 40
8.00000000
100
AcDbArc
 50
106.334822781
 51
126.423573642
  0
LINE
  5
6BD
100
AcDbEntity
  8
0
100
AcDbLine
 10
-197.55000000
 20
35.25000000
 30
0.0
 11
-197.55000000
 21
37.38719659
 31
0.0
  0
LINE
  5
6BE
100
AcDbEntity
  8
0
100
AcDbLine
 10
-188.05000000
 20
35.25000000
 30
0.0
 11
-188.05000000
 21
37.38719659
 31
0.0
  0
LINE
  5
6BF
100
AcDbEntity
  8
LE_RED
100
AcDbLine
 10
-191.01000000
 20
35.25000000
 30
0.0
 11
-191.01000000
 21
20.55000000
 31
0.0
  0
POLYLINE
  5
6C0
100
AcDbEntity
  8
LE_RED
100
AcDb2dPolyline
 66
     1
  0
VERTEX
  5
6C1
100
AcDbEntity
  8
LE_RED
100
AcDbVertex
100
AcDb2dVertex
 10
-194.59000000
 20
35.25000000
 30
0.0
  0
VERTEX
  5
6C2
100
AcDbEntity
  8
LE_RED
100
AcDbVertex
100
AcDb2dVertex
 10
-194.59000000
 20
20.55000000
 30
0.0
  0
VERTEX
  5
6C3
100
AcDbEntity
  8
LE_RED
100
AcDbVertex
100
AcDb2dVertex
 10
-192.80000000
 20
16.25500000
 30
0.0
  0
SEQEND
  5
6C4
100
AcDbEntity
  8
LE_RED
  0
LINE
  5
6C5
100
AcDbEntity
  8
LE_RED
100
AcDbLine
 10
-191.01000000
 20
20.55000000
 30
0.0
 11
-192.80000000
 21
16.25500000
 31
0.0
  0
LINE
  5
6C6
100
AcDbEntity
  8
0
100
AcDbLine
 10
-195.05000000
 20
36.92000000
 30
0.0
 11
-195.05000000
 21
38.62707627
 31
0.0
  0
LINE
  5
6C7
100
AcDbEntity
  8
0
100
AcDbLine
 10
-194.05256181
 20
36.92000000
 30
0.0
 11
-194.05256181
 21
38.75234066
 31
0.0
  0
LINE
  5
6C8
100
AcDbEntity
  8
0
100
AcDbLine
 10
-194.11050000
 20
36.92000000
 30
0.0
 11
-194.11050000
 21
38.67234479
 31
0.0
  0
LINE
  5
6C9
100
AcDbEntity
  8
0
100
AcDbLine
 10
-191.48950000
 20
36.92000000
 30
0.0
 11
-191.48950000
 21
38.67234479
 31
0.0
  0
LINE
  5
6CA
100
AcDbEntity
  8
0
100
AcDbLine
 10
-191.54743819
 20
36.92000000
 30
0.0
 11
-191.54743819
 21
38.75234066
 31
0.0
  0
LINE
  5
6CB
100
AcDbEntity
  8
0
100
AcDbLine
 10
-190.55000000
 20
36.92000000
 30
0.0
 11
-190.55000000
 21
38.62707627
 31
0.0
  0
LINE
  5
6CC
100
AcDbEntity
  8
0
100
AcDbLine
 10
-191.54743819
 20
36.92000000
 30
0.0
 11
-191.54743819
 21
38.75234066
 31
0.0
  0
LINE
  5
6CD
100
AcDbEntity
  8
0
100
AcDbLine
 10
-191.48950000
 20
36.92000000
 30
0.0
 11
-191.48950000
 21
38.67234479
 31
0.0
  0
LINE
  5
6CE
100
AcDbEntity
  8
0
100
AcDbLine
 10
-194.11050000
 20
36.92000000
 30
0.0
 11
-194.11050000
 21
38.67234479
 31
0.0
  0
LINE
  5
6CF
100
AcDbEntity
  8
0
100
AcDbLine
 10
-194.05256181
 20
36.92000000
 30
0.0
 11
-194.05256181
 21
38.75234066
 31
0.0
  0
LINE
  5
6D0
100
AcDbEntity
  8
0
100
AcDbLine
 10
-188.05000000
 20
37.38719659
 30
0.0
 11
-197.55000000
 21
37.38719659
 31
0.0
  0
POLYLINE
  5
6D1
100
AcDbEntity
  8
0
100
AcDb2dPolyline
 66
     1
  0
VERTEX
  5
6D2
100
AcDbEntity
  8
0
100
AcDbVertex
100
AcDb2dVertex
 10
-194.76044634
 20
38.69762174
 30
0.0
  0
VERTEX
  5
6D3
100
AcDbEntity
  8
0
100
AcDbVertex
100
AcDb2dVertex
 10
-194.76457710
 20
38.69661986
 30
0.0
  0
VERTEX
  5
6D4
100
AcDbEntity
  8
0
100
AcDbVertex
100
AcDb2dVertex
 10
-194.80148085
 20
38.68766340
 30
0.0
  0
VERTEX
  5
6D5
100
AcDbEntity
  8
0
100
AcDbVertex
100
AcDb2dVertex
 10
-194.83703408
 20
38.67902490
 30
0.0
  0
VERTEX
  5
6D6
100
AcDbEntity
  8
0
100
AcDbVertex
100
AcDb2dVertex
 10
-194.87085339
 20
38.67079873
 30
0.0
  0
VERTEX
  5
6D7
100
AcDbEntity
  8
0
100
AcDbVertex
100
AcDb2dVertex
 10
-194.90257911
 20
38.66307382
 30
0.0
  0
VERTEX
  5
6D8
100
AcDbEntity
  8
0
100
AcDbVertex
100
AcDb2dVertex
 10
-194.93187922
 20
38.65593264
 30
0.0
  0
VERTEX
  5
6D9
100
AcDbEntity
  8
0
100
AcDbVertex
100
AcDb2dVertex
 10
-194.95845239
 20
38.64945036
 30
0.0
  0
VERTEX
  5
6DA
100
AcDbEntity
  8
0
100
AcDbVertex
100
AcDb2dVertex
 10
-194.98203034
 20
38.64369417
 30
0.0
  0
VERTEX
  5
6DB
100
AcDbEntity
  8
0
100
AcDbVertex
100
AcDb2dVertex
 10
-195.00237928
 20
38.63872282
 30
0.0
  0
VERTEX
  5
6DC
100
AcDbEntity
  8
0
100
AcDbVertex
100
AcDb2dVertex
 10
-195.01930087
 20
38.63458635
 30
0.0
  0
VERTEX
  5
6DD
100
AcDbEntity
  8
0
100
AcDbVertex
100
AcDb2dVertex
 10
-195.03263256
 20
38.63132585
 30
0.0
  0
VERTEX
  5
6DE
100
AcDbEntity
  8
0
100
AcDbVertex
100
AcDb2dVertex
 10
-195.04224766
 20
38.62897345
 30
0.0
  0
VERTEX
  5
6DF
100
AcDbEntity
  8
0
100
AcDbVertex
100
AcDb2dVertex
 10
-195.04805524
 20
38.62755224
 30
0.0
  0
VERTEX
  5
6E0
100
AcDbEntity
  8
0
100
AcDbVertex
100
AcDb2dVertex
 10
-195.05000000
 20
38.62707627
 30
0.0
  0
SEQEND
  5
6E1
100
AcDbEntity
  8
0
  0
POLYLINE
  5
6E2
100
AcDbEntity
  8
0
100
AcDb2dPolyline
 66
     1
  0
VERTEX
  5
6E3
100
AcDbEntity
  8
0
100
AcDbVertex
100
AcDb2dVertex
 10
-194.09368072
 20
38.69762173
 30
0.0
  0
VERTEX
  5
6E4
100
AcDbEntity
  8
0
100
AcDbVertex
100
AcDb2dVertex
 10
-194.07349093
 20
38.71550422
 30
0.0
  0
VERTEX
  5
6E5
100
AcDbEntity
  8
0
100
AcDbVertex
100
AcDb2dVertex
 10
-194.06002718
 20
38.73168915
 30
0.0
  0
VERTEX
  5
6E6
100
AcDbEntity
  8
0
100
AcDbVertex
100
AcDb2dVertex
 10
-194.05399598
 20
38.74379147
 30
0.0
  0
VERTEX
  5
6E7
100
AcDbEntity
  8
0
100
AcDbVertex
100
AcDb2dVertex
 10
-194.05297699
 20
38.75660933
 30
0.0
  0
VERTEX
  5
6E8
100
AcDbEntity
  8
0
100
AcDbVertex
100
AcDb2dVertex
 10
-194.05872179
 20
38.76748450
 30
0.0
  0
VERTEX
  5
6E9
100
AcDbEntity
  8
0
100
AcDbVertex
100
AcDb2dVertex
 10
-194.07143602
 20
38.77649373
 30
0.0
  0
VERTEX
  5
6EA
100
AcDbEntity
  8
0
100
AcDbVertex
100
AcDb2dVertex
 10
-194.09053796
 20
38.78326929
 30
0.0
  0
VERTEX
  5
6EB
100
AcDbEntity
  8
0
100
AcDbVertex
100
AcDb2dVertex
 10
-194.11603836
 20
38.78795860
 30
0.0
  0
VERTEX
  5
6EC
100
AcDbEntity
  8
0
100
AcDbVertex
100
AcDb2dVertex
 10
-194.14845553
 20
38.79056865
 30
0.0
  0
VERTEX
  5
6ED
100
AcDbEntity
  8
0
100
AcDbVertex
100
AcDb2dVertex
 10
-194.18620253
 20
38.79098235
 30
0.0
  0
VERTEX
  5
6EE
100
AcDbEntity
  8
0
100
AcDbVertex
100
AcDb2dVertex
 10
-194.22963005
 20
38.78927673
 30
0.0
  0
VERTEX
  5
6EF
100
AcDbEntity
  8
0
100
AcDbVertex
100
AcDb2dVertex
 10
-194.27346808
 20
38.78592433
 30
0.0
  0
VERTEX
  5
6F0
100
AcDbEntity
  8
0
100
AcDbVertex
100
AcDb2dVertex
 10
-194.32678382
 20
38.78022955
 30
0.0
  0
VERTEX
  5
6F1
100
AcDbEntity
  8
0
100
AcDbVertex
100
AcDb2dVertex
 10
-194.38479887
 20
38.77247950
 30
0.0
  0
VERTEX
  5
6F2
100
AcDbEntity
  8
0
100
AcDbVertex
100
AcDb2dVertex
 10
-194.44906617
 20
38.76239044
 30
0.0
  0
VERTEX
  5
6F3
100
AcDbEntity
  8
0
100
AcDbVertex
100
AcDb2dVertex
 10
-194.51531458
 20
38.75062159
 30
0.0
  0
VERTEX
  5
6F4
100
AcDbEntity
  8
0
100
AcDbVertex
100
AcDb2dVertex
 10
-194.58496589
 20
38.73696540
 30
0.0
  0
VERTEX
  5
6F5
100
AcDbEntity
  8
0
100
AcDbVertex
100
AcDb2dVertex
 10
-194.66006085
 20
38.72094122
 30
0.0
  0
VERTEX
  5
6F6
100
AcDbEntity
  8
0
100
AcDbVertex
100
AcDb2dVertex
 10
-194.73505126
 20
38.70371628
 30
0.0
  0
VERTEX
  5
6F7
100
AcDbEntity
  8
0
100
AcDbVertex
100
AcDb2dVertex
 10
-194.76044635
 20
38.69762173
 30
0.0
  0
SEQEND
  5
6F8
100
AcDbEntity
  8
0
  0
POLYLINE
  5
6F9
100
AcDbEntity
  8
0
100
AcDb2dPolyline
 66
     1
  0
VERTEX
  5
6FA
100
AcDbEntity
  8
0
100
AcDbVertex
100
AcDb2dVertex
 10
-193.92500000
 20
38.62707627
 30
0.0
  0
VERTEX
  5
6FB
100
AcDbEntity
  8
0
100
AcDbVertex
100
AcDb2dVertex
 10
-193.95688215
 20
38.62755224
 30
0.0
  0
VERTEX
  5
6FC
100
AcDbEntity
  8
0
100
AcDbVertex
100
AcDb2dVertex
 10
-193.98646220
 20
38.62897345
 30
0.0
  0
VERTEX
  5
6FD
100
AcDbEntity
  8
0
100
AcDbVertex
100
AcDb2dVertex
 10
-194.01346956
 20
38.63132585
 30
0.0
  0
VERTEX
  5
6FE
100
AcDbEntity
  8
0
100
AcDbVertex
100
AcDb2dVertex
 10
-194.03762402
 20
38.63458635
 30
0.0
  0
VERTEX
  5
6FF
100
AcDbEntity
  8
0
100
AcDbVertex
100
AcDb2dVertex
 10
-194.05867021
 20
38.63872282
 30
0.0
  0
VERTEX
  5
700
100
AcDbEntity
  8
0
100
AcDbVertex
100
AcDb2dVertex
 10
-194.07638024
 20
38.64369417
 30
0.0
  0
VERTEX
  5
701
100
AcDbEntity
  8
0
100
AcDbVertex
100
AcDb2dVertex
 10
-194.09055655
 20
38.64945036
 30
0.0
  0
VERTEX
  5
702
100
AcDbEntity
  8
0
100
AcDbVertex
100
AcDb2dVertex
 10
-194.10103496
 20
38.65593264
 30
0.0
  0
VERTEX
  5
703
100
AcDbEntity
  8
0
100
AcDbVertex
100
AcDb2dVertex
 10
-194.10768775
 20
38.66307382
 30
0.0
  0
VERTEX
  5
704
100
AcDbEntity
  8
0
100
AcDbVertex
100
AcDb2dVertex
 10
-194.11042662
 20
38.67079873
 30
0.0
  0
VERTEX
  5
705
100
AcDbEntity
  8
0
100
AcDbVertex
100
AcDb2dVertex
 10
-194.10920531
 20
38.67902490
 30
0.0
  0
VERTEX
  5
706
100
AcDbEntity
  8
0
100
AcDbVertex
100
AcDb2dVertex
 10
-194.10402178
 20
38.68766340
 30
0.0
  0
VERTEX
  5
707
100
AcDbEntity
  8
0
100
AcDbVertex
100
AcDb2dVertex
 10
-194.09491960
 20
38.69661986
 30
0.0
  0
VERTEX
  5
708
100
AcDbEntity
  8
0
100
AcDbVertex
100
AcDb2dVertex
 10
-194.09368069
 20
38.69762174
 30
0.0
  0
SEQEND
  5
709
100
AcDbEntity
  8
0
  0
POLYLINE
  5
70A
100
AcDbEntity
  8
0
100
AcDb2dPolyline
 66
     1
  0
VERTEX
  5
70B
100
AcDbEntity
  8
0
100
AcDbVertex
100
AcDb2dVertex
 10
-193.46676566
 20
38.69762174
 30
0.0
  0
VERTEX
  5
70C
100
AcDbEntity
  8
0
100
AcDbVertex
100
AcDb2dVertex
 10
-193.46965751
 20
38.69661986
 30
0.0
  0
VERTEX
  5
70D
100
AcDbEntity
  8
0
100
AcDbVertex
100
AcDb2dVertex
 10
-193.49745907
 20
38.68766340
 30
0.0
  0
VERTEX
  5
70E
100
AcDbEntity
  8
0
100
AcDbVertex
100
AcDb2dVertex
 10
-193.52782876
 20
38.67902490
 30
0.0
  0
VERTEX
  5
70F
100
AcDbEntity
  8
0
100
AcDbVertex
100
AcDb2dVertex
 10
-193.56042677
 20
38.67079873
 30
0.0
  0
VERTEX
  5
710
100
AcDbEntity
  8
0
100
AcDbVertex
100
AcDb2dVertex
 10
-193.59489136
 20
38.66307382
 30
0.0
  0
VERTEX
  5
711
100
AcDbEntity
  8
0
100
AcDbVertex
100
AcDb2dVertex
 10
-193.63084425
 20
38.65593264
 30
0.0
  0
VERTEX
  5
712
100
AcDbEntity
  8
0
100
AcDbVertex
100
AcDb2dVertex
 10
-193.66789584
 20
38.64945036
 30
0.0
  0
VERTEX
  5
713
100
AcDbEntity
  8
0
100
AcDbVertex
100
AcDb2dVertex
 10
-193.70565010
 20
38.64369417
 30
0.0
  0
VERTEX
  5
714
100
AcDbEntity
  8
0
100
AcDbVertex
100
AcDb2dVertex
 10
-193.74370907
 20
38.63872282
 30
0.0
  0
VERTEX
  5
715
100
AcDbEntity
  8
0
100
AcDbVertex
100
AcDb2dVertex
 10
-193.78167685
 20
38.63458635
 30
0.0
  0
VERTEX
  5
716
100
AcDbEntity
  8
0
100
AcDbVertex
100
AcDb2dVertex
 10
-193.81916300
 20
38.63132585
 30
0.0
  0
VERTEX
  5
717
100
AcDbEntity
  8
0
100
AcDbVertex
100
AcDb2dVertex
 10
-193.85578546
 20
38.62897345
 30
0.0
  0
VERTEX
  5
718
100
AcDbEntity
  8
0
100
AcDbVertex
100
AcDb2dVertex
 10
-193.89117309
 20
38.62755224
 30
0.0
  0
VERTEX
  5
719
100
AcDbEntity
  8
0
100
AcDbVertex
100
AcDb2dVertex
 10
-193.92500000
 20
38.62707627
 30
0.0
  0
SEQEND
  5
71A
100
AcDbEntity
  8
0
  0
POLYLINE
  5
71B
100
AcDbEntity
  8
0
100
AcDb2dPolyline
 66
     1
  0
VERTEX
  5
71C
100
AcDbEntity
  8
0
100
AcDbVertex
100
AcDb2dVertex
 10
-192.13323437
 20
38.69762173
 30
0.0
  0
VERTEX
  5
71D
100
AcDbEntity
  8
0
100
AcDbVertex
100
AcDb2dVertex
 10
-192.18919837
 20
38.71550422
 30
0.0
  0
VERTEX
  5
71E
100
AcDbEntity
  8
0
100
AcDbVertex
100
AcDb2dVertex
 10
-192.24966019
 20
38.73168915
 30
0.0
  0
VERTEX
  5
71F
100
AcDbEntity
  8
0
100
AcDbVertex
100
AcDb2dVertex
 10
-192.30306231
 20
38.74379147
 30
0.0
  0
VERTEX
  5
720
100
AcDbEntity
  8
0
100
AcDbVertex
100
AcDb2dVertex
 10
-192.37047025
 20
38.75660933
 30
0.0
  0
VERTEX
  5
721
100
AcDbEntity
  8
0
100
AcDbVertex
100
AcDb2dVertex
 10
-192.44097000
 20
38.76748450
 30
0.0
  0
VERTEX
  5
722
100
AcDbEntity
  8
0
100
AcDbVertex
100
AcDb2dVertex
 10
-192.51534596
 20
38.77649373
 30
0.0
  0
VERTEX
  5
723
100
AcDbEntity
  8
0
100
AcDbVertex
100
AcDb2dVertex
 10
-192.59039882
 20
38.78326929
 30
0.0
  0
VERTEX
  5
724
100
AcDbEntity
  8
0
100
AcDbVertex
100
AcDb2dVertex
 10
-192.66692120
 20
38.78795860
 30
0.0
  0
VERTEX
  5
725
100
AcDbEntity
  8
0
100
AcDbVertex
100
AcDb2dVertex
 10
-192.74596741
 20
38.79056865
 30
0.0
  0
VERTEX
  5
726
100
AcDbEntity
  8
0
100
AcDbVertex
100
AcDb2dVertex
 10
-192.82371440
 20
38.79098235
 30
0.0
  0
VERTEX
  5
727
100
AcDbEntity
  8
0
100
AcDbVertex
100
AcDb2dVertex
 10
-192.90128129
 20
38.78927673
 30
0.0
  0
VERTEX
  5
728
100
AcDbEntity
  8
0
100
AcDbVertex
100
AcDb2dVertex
 10
-192.97070725
 20
38.78592433
 30
0.0
  0
VERTEX
  5
729
100
AcDbEntity
  8
0
100
AcDbVertex
100
AcDb2dVertex
 10
-193.04635492
 20
38.78022955
 30
0.0
  0
VERTEX
  5
72A
100
AcDbEntity
  8
0
100
AcDbVertex
100
AcDb2dVertex
 10
-193.12025523
 20
38.77247950
 30
0.0
  0
VERTEX
  5
72B
100
AcDbEntity
  8
0
100
AcDbVertex
100
AcDb2dVertex
 10
-193.19400744
 20
38.76239044
 30
0.0
  0
VERTEX
  5
72C
100
AcDbEntity
  8
0
100
AcDbVertex
100
AcDb2dVertex
 10
-193.26269023
 20
38.75062159
 30
0.0
  0
VERTEX
  5
72D
100
AcDbEntity
  8
0
100
AcDbVertex
100
AcDb2dVertex
 10
-193.32806567
 20
38.73696540
 30
0.0
  0
VERTEX
  5
72E
100
AcDbEntity
  8
0
100
AcDbVertex
100
AcDb2dVertex
 10
-193.39167459
 20
38.72094122
 30
0.0
  0
VERTEX
  5
72F
100
AcDbEntity
  8
0
100
AcDbVertex
100
AcDb2dVertex
 10
-193.44878544
 20
38.70371628
 30
0.0
  0
VERTEX
  5
730
100
AcDbEntity
  8
0
100
AcDbVertex
100
AcDb2dVertex
 10
-193.46676563
 20
38.69762173
 30
0.0
  0
SEQEND
  5
731
100
AcDbEntity
  8
0
  0
POLYLINE
  5
732
100
AcDbEntity
  8
0
100
AcDb2dPolyline
 66
     1
  0
VERTEX
  5
733
100
AcDbEntity
  8
0
100
AcDbVertex
100
AcDb2dVertex
 10
-191.67500000
 20
38.62707627
 30
0.0
  0
VERTEX
  5
734
100
AcDbEntity
  8
0
100
AcDbVertex
100
AcDb2dVertex
 10
-191.70882691
 20
38.62755224
 30
0.0
  0
VERTEX
  5
735
100
AcDbEntity
  8
0
100
AcDbVertex
100
AcDb2dVertex
 10
-191.74421454
 20
38.62897345
 30
0.0
  0
VERTEX
  5
736
100
AcDbEntity
  8
0
100
AcDbVertex
100
AcDb2dVertex
 10
-191.78083700
 20
38.63132585
 30
0.0
  0
VERTEX
  5
737
100
AcDbEntity
  8
0
100
AcDbVertex
100
AcDb2dVertex
 10
-191.83044674
 20
38.63581734
 30
0.0
  0
VERTEX
  5
738
100
AcDbEntity
  8
0
100
AcDbVertex
100
AcDb2dVertex
 10
-191.88069515
 20
38.64181559
 30
0.0
  0
VERTEX
  5
739
100
AcDbEntity
  8
0
100
AcDbVertex
100
AcDb2dVertex
 10
-191.93210416
 20
38.64945036
 30
0.0
  0
VERTEX
  5
73A
100
AcDbEntity
  8
0
100
AcDbVertex
100
AcDb2dVertex
 10
-191.98077696
 20
38.65814530
 30
0.0
  0
VERTEX
  5
73B
100
AcDbEntity
  8
0
100
AcDbVertex
100
AcDb2dVertex
 10
-192.02734900
 20
38.66795272
 30
0.0
  0
VERTEX
  5
73C
100
AcDbEntity
  8
0
100
AcDbVertex
100
AcDb2dVertex
 10
-192.07217124
 20
38.67902490
 30
0.0
  0
VERTEX
  5
73D
100
AcDbEntity
  8
0
100
AcDbVertex
100
AcDb2dVertex
 10
-192.11174366
 20
38.69050309
 30
0.0
  0
VERTEX
  5
73E
100
AcDbEntity
  8
0
100
AcDbVertex
100
AcDb2dVertex
 10
-192.13323434
 20
38.69762174
 30
0.0
  0
SEQEND
  5
73F
100
AcDbEntity
  8
0
  0
POLYLINE
  5
740
100
AcDbEntity
  8
0
100
AcDb2dPolyline
 66
     1
  0
VERTEX
  5
741
100
AcDbEntity
  8
0
100
AcDbVertex
100
AcDb2dVertex
 10
-191.50631931
 20
38.69762174
 30
0.0
  0
VERTEX
  5
742
100
AcDbEntity
  8
0
100
AcDbVertex
100
AcDb2dVertex
 10
-191.50508040
 20
38.69661986
 30
0.0
  0
VERTEX
  5
743
100
AcDbEntity
  8
0
100
AcDbVertex
100
AcDb2dVertex
 10
-191.49597822
 20
38.68766340
 30
0.0
  0
VERTEX
  5
744
100
AcDbEntity
  8
0
100
AcDbVertex
100
AcDb2dVertex
 10
-191.49079469
 20
38.67902490
 30
0.0
  0
VERTEX
  5
745
100
AcDbEntity
  8
0
100
AcDbVertex
100
AcDb2dVertex
 10
-191.48957338
 20
38.67079873
 30
0.0
  0
VERTEX
  5
746
100
AcDbEntity
  8
0
100
AcDbVertex
100
AcDb2dVertex
 10
-191.49231225
 20
38.66307382
 30
0.0
  0
VERTEX
  5
747
100
AcDbEntity
  8
0
100
AcDbVertex
100
AcDb2dVertex
 10
-191.49896504
 20
38.65593264
 30
0.0
  0
VERTEX
  5
748
100
AcDbEntity
  8
0
100
AcDbVertex
100
AcDb2dVertex
 10
-191.50944345
 20
38.64945036
 30
0.0
  0
VERTEX
  5
749
100
AcDbEntity
  8
0
100
AcDbVertex
100
AcDb2dVertex
 10
-191.52361976
 20
38.64369417
 30
0.0
  0
VERTEX
  5
74A
100
AcDbEntity
  8
0
100
AcDbVertex
100
AcDb2dVertex
 10
-191.54132979
 20
38.63872282
 30
0.0
  0
VERTEX
  5
74B
100
AcDbEntity
  8
0
100
AcDbVertex
100
AcDb2dVertex
 10
-191.56237598
 20
38.63458635
 30
0.0
  0
VERTEX
  5
74C
100
AcDbEntity
  8
0
100
AcDbVertex
100
AcDb2dVertex
 10
-191.58653044
 20
38.63132585
 30
0.0
  0
VERTEX
  5
74D
100
AcDbEntity
  8
0
100
AcDbVertex
100
AcDb2dVertex
 10
-191.61353780
 20
38.62897345
 30
0.0
  0
VERTEX
  5
74E
100
AcDbEntity
  8
0
100
AcDbVertex
100
AcDb2dVertex
 10
-191.64311785
 20
38.62755224
 30
0.0
  0
VERTEX
  5
74F
100
AcDbEntity
  8
0
100
AcDbVertex
100
AcDb2dVertex
 10
-191.67500000
 20
38.62707627
 30
0.0
  0
SEQEND
  5
750
100
AcDbEntity
  8
0
  0
POLYLINE
  5
751
100
AcDbEntity
  8
0
100
AcDb2dPolyline
 66
     1
  0
VERTEX
  5
752
100
AcDbEntity
  8
0
100
AcDbVertex
100
AcDb2dVertex
 10
-190.83955365
 20
38.69762173
 30
0.0
  0
VERTEX
  5
753
100
AcDbEntity
  8
0
100
AcDbVertex
100
AcDb2dVertex
 10
-190.91570744
 20
38.71550422
 30
0.0
  0
VERTEX
  5
754
100
AcDbEntity
  8
0
100
AcDbVertex
100
AcDb2dVertex
 10
-190.98963301
 20
38.73168915
 30
0.0
  0
VERTEX
  5
755
100
AcDbEntity
  8
0
100
AcDbVertex
100
AcDb2dVertex
 10
-191.04906633
 20
38.74379147
 30
0.0
  0
VERTEX
  5
756
100
AcDbEntity
  8
0
100
AcDbVertex
100
AcDb2dVertex
 10
-191.11749326
 20
38.75660933
 30
0.0
  0
VERTEX
  5
757
100
AcDbEntity
  8
0
100
AcDbVertex
100
AcDb2dVertex
 10
-191.18224821
 20
38.76748450
 30
0.0
  0
VERTEX
  5
758
100
AcDbEntity
  8
0
100
AcDbVertex
100
AcDb2dVertex
 10
-191.24390994
 20
38.77649373
 30
0.0
  0
VERTEX
  5
759
100
AcDbEntity
  8
0
100
AcDbVertex
100
AcDb2dVertex
 10
-191.29986086
 20
38.78326929
 30
0.0
  0
VERTEX
  5
75A
100
AcDbEntity
  8
0
100
AcDbVertex
100
AcDb2dVertex
 10
-191.35088284
 20
38.78795860
 30
0.0
  0
VERTEX
  5
75B
100
AcDbEntity
  8
0
100
AcDbVertex
100
AcDb2dVertex
 10
-191.39751188
 20
38.79056865
 30
0.0
  0
VERTEX
  5
75C
100
AcDbEntity
  8
0
100
AcDbVertex
100
AcDb2dVertex
 10
-191.43751187
 20
38.79098235
 30
0.0
  0
VERTEX
  5
75D
100
AcDbEntity
  8
0
100
AcDbVertex
100
AcDb2dVertex
 10
-191.47165124
 20
38.78927673
 30
0.0
  0
VERTEX
  5
75E
100
AcDbEntity
  8
0
100
AcDbVertex
100
AcDb2dVertex
 10
-191.49723917
 20
38.78592433
 30
0.0
  0
VERTEX
  5
75F
100
AcDbEntity
  8
0
100
AcDbVertex
100
AcDb2dVertex
 10
-191.51957109
 20
38.78022955
 30
0.0
  0
VERTEX
  5
760
100
AcDbEntity
  8
0
100
AcDbVertex
100
AcDb2dVertex
 10
-191.53545636
 20
38.77247950
 30
0.0
  0
VERTEX
  5
761
100
AcDbEntity
  8
0
100
AcDbVertex
100
AcDb2dVertex
 10
-191.54494128
 20
38.76239044
 30
0.0
  0
VERTEX
  5
762
100
AcDbEntity
  8
0
100
AcDbVertex
100
AcDb2dVertex
 10
-191.54737565
 20
38.75062159
 30
0.0
  0
VERTEX
  5
763
100
AcDbEntity
  8
0
100
AcDbVertex
100
AcDb2dVertex
 10
-191.54309977
 20
38.73696540
 30
0.0
  0
VERTEX
  5
764
100
AcDbEntity
  8
0
100
AcDbVertex
100
AcDb2dVertex
 10
-191.53161374
 20
38.72094122
 30
0.0
  0
VERTEX
  5
765
100
AcDbEntity
  8
0
100
AcDbVertex
100
AcDb2dVertex
 10
-191.51373418
 20
38.70371628
 30
0.0
  0
VERTEX
  5
766
100
AcDbEntity
  8
0
100
AcDbVertex
100
AcDb2dVertex
 10
-191.50631928
 20
38.69762173
 30
0.0
  0
SEQEND
  5
767
100
AcDbEntity
  8
0
  0
POLYLINE
  5
768
100
AcDbEntity
  8
0
100
AcDb2dPolyline
 66
     1
 70
     1
  0
VERTEX
  5
769
100
AcDbEntity
  8
0
100
AcDbVertex
100
AcDb2dVertex
 10
-190.55000000
 20
38.62707627
 30
0.0
  0
VERTEX
  5
76A
100
AcDbEntity
  8
0
100
AcDbVertex
100
AcDb2dVertex
 10
-190.55194476
 20
38.62755224
 30
0.0
  0
VERTEX
  5
76B
100
AcDbEntity
  8
0
100
AcDbVertex
100
AcDb2dVertex
 10
-190.55775234
 20
38.62897345
 30
0.0
  0
VERTEX
  5
76C
100
AcDbEntity
  8
0
100
AcDbVertex
100
AcDb2dVertex
 10
-190.56736744
 20
38.63132585
 30
0.0
  0
VERTEX
  5
76D
100
AcDbEntity
  8
0
100
AcDbVertex
100
AcDb2dVertex
 10
-190.58069913
 20
38.63458635
 30
0.0
  0
VERTEX
  5
76E
100
AcDbEntity
  8
0
100
AcDbVertex
100
AcDb2dVertex
 10
-190.59762072
 20
38.63872282
 30
0.0
  0
VERTEX
  5
76F
100
AcDbEntity
  8
0
100
AcDbVertex
100
AcDb2dVertex
 10
-190.61796966
 20
38.64369417
 30
0.0
  0
VERTEX
  5
770
100
AcDbEntity
  8
0
100
AcDbVertex
100
AcDb2dVertex
 10
-190.64154761
 20
38.64945036
 30
0.0
  0
VERTEX
  5
771
100
AcDbEntity
  8
0
100
AcDbVertex
100
AcDb2dVertex
 10
-190.66812078
 20
38.65593264
 30
0.0
  0
VERTEX
  5
772
100
AcDbEntity
  8
0
100
AcDbVertex
100
AcDb2dVertex
 10
-190.69742089
 20
38.66307382
 30
0.0
  0
VERTEX
  5
773
100
AcDbEntity
  8
0
100
AcDbVertex
100
AcDb2dVertex
 10
-190.72914661
 20
38.67079873
 30
0.0
  0
VERTEX
  5
774
100
AcDbEntity
  8
0
100
AcDbVertex
100
AcDb2dVertex
 10
-190.76296592
 20
38.67902490
 30
0.0
  0
VERTEX
  5
775
100
AcDbEntity
  8
0
100
AcDbVertex
100
AcDb2dVertex
 10
-190.79851915
 20
38.68766340
 30
0.0
  0
VERTEX
  5
776
100
AcDbEntity
  8
0
100
AcDbVertex
100
AcDb2dVertex
 10
-190.83542290
 20
38.69661986
 30
0.0
  0
VERTEX
  5
777
100
AcDbEntity
  8
0
100
AcDbVertex
100
AcDb2dVertex
 10
-190.83955366
 20
38.69762174
 30
0.0
  0
VERTEX
  5
778
100
AcDbEntity
  8
0
100
AcDbVertex
100
AcDb2dVertex
 10
-190.83542290
 20
38.69661986
 30
0.0
  0
VERTEX
  5
779
100
AcDbEntity
  8
0
100
AcDbVertex
100
AcDb2dVertex
 10
-190.79851915
 20
38.68766340
 30
0.0
  0
VERTEX
  5
77A
100
AcDbEntity
  8
0
100
AcDbVertex
100
AcDb2dVertex
 10
-190.76296592
 20
38.67902490
 30
0.0
  0
VERTEX
  5
77B
100
AcDbEntity
  8
0
100
AcDbVertex
100
AcDb2dVertex
 10
-190.72914661
 20
38.67079873
 30
0.0
  0
VERTEX
  5
77C
100
AcDbEntity
  8
0
100
AcDbVertex
100
AcDb2dVertex
 10
-190.69742089
 20
38.66307382
 30
0.0
  0
VERTEX
  5
77D
100
AcDbEntity
  8
0
100
AcDbVertex
100
AcDb2dVertex
 10
-190.66812078
 20
38.65593264
 30
0.0
  0
VERTEX
  5
77E
100
AcDbEntity
  8
0
100
AcDbVertex
100
AcDb2dVertex
 10
-190.64154761
 20
38.64945036
 30
0.0
  0
VERTEX
  5
77F
100
AcDbEntity
  8
0
100
AcDbVertex
100
AcDb2dVertex
 10
-190.61796966
 20
38.64369417
 30
0.0
  0
VERTEX
  5
780
100
AcDbEntity
  8
0
100
AcDbVertex
100
AcDb2dVertex
 10
-190.59762072
 20
38.63872282
 30
0.0
  0
VERTEX
  5
781
100
AcDbEntity
  8
0
100
AcDbVertex
100
AcDb2dVertex
 10
-190.58069913
 20
38.63458635
 30
0.0
  0
VERTEX
  5
782
100
AcDbEntity
  8
0
100
AcDbVertex
100
AcDb2dVertex
 10
-190.56736744
 20
38.63132585
 30
0.0
  0
VERTEX
  5
783
100
AcDbEntity
  8
0
100
AcDbVertex
100
AcDb2dVertex
 10
-190.55775234
 20
38.62897345
 30
0.0
  0
VERTEX
  5
784
100
AcDbEntity
  8
0
100
AcDbVertex
100
AcDb2dVertex
 10
-190.55194476
 20
38.62755224
 30
0.0
  0
SEQEND
  5
785
100
AcDbEntity
  8
0
  0
POLYLINE
  5
786
100
AcDbEntity
  8
0
100
AcDb2dPolyline
 66
     1
  0
VERTEX
  5
787
100
AcDbEntity
  8
0
100
AcDbVertex
100
AcDb2dVertex
 10
-191.50631928
 20
38.69762173
 30
0.0
  0
VERTEX
  5
788
100
AcDbEntity
  8
0
100
AcDbVertex
100
AcDb2dVertex
 10
-191.52650907
 20
38.71550422
 30
0.0
  0
VERTEX
  5
789
100
AcDbEntity
  8
0
100
AcDbVertex
100
AcDb2dVertex
 10
-191.53997282
 20
38.73168915
 30
0.0
  0
VERTEX
  5
78A
100
AcDbEntity
  8
0
100
AcDbVertex
100
AcDb2dVertex
 10
-191.54600402
 20
38.74379147
 30
0.0
  0
VERTEX
  5
78B
100
AcDbEntity
  8
0
100
AcDbVertex
100
AcDb2dVertex
 10
-191.54702301
 20
38.75660933
 30
0.0
  0
VERTEX
  5
78C
100
AcDbEntity
  8
0
100
AcDbVertex
100
AcDb2dVertex
 10
-191.54127821
 20
38.76748450
 30
0.0
  0
VERTEX
  5
78D
100
AcDbEntity
  8
0
100
AcDbVertex
100
AcDb2dVertex
 10
-191.52856398
 20
38.77649373
 30
0.0
  0
VERTEX
  5
78E
100
AcDbEntity
  8
0
100
AcDbVertex
100
AcDb2dVertex
 10
-191.50946204
 20
38.78326929
 30
0.0
  0
VERTEX
  5
78F
100
AcDbEntity
  8
0
100
AcDbVertex
100
AcDb2dVertex
 10
-191.48396164
 20
38.78795860
 30
0.0
  0
VERTEX
  5
790
100
AcDbEntity
  8
0
100
AcDbVertex
100
AcDb2dVertex
 10
-191.45154447
 20
38.79056865
 30
0.0
  0
VERTEX
  5
791
100
AcDbEntity
  8
0
100
AcDbVertex
100
AcDb2dVertex
 10
-191.41379747
 20
38.79098235
 30
0.0
  0
VERTEX
  5
792
100
AcDbEntity
  8
0
100
AcDbVertex
100
AcDb2dVertex
 10
-191.37036995
 20
38.78927673
 30
0.0
  0
VERTEX
  5
793
100
AcDbEntity
  8
0
100
AcDbVertex
100
AcDb2dVertex
 10
-191.32653192
 20
38.78592433
 30
0.0
  0
VERTEX
  5
794
100
AcDbEntity
  8
0
100
AcDbVertex
100
AcDb2dVertex
 10
-191.27321618
 20
38.78022955
 30
0.0
  0
VERTEX
  5
795
100
AcDbEntity
  8
0
100
AcDbVertex
100
AcDb2dVertex
 10
-191.21520113
 20
38.77247950
 30
0.0
  0
VERTEX
  5
796
100
AcDbEntity
  8
0
100
AcDbVertex
100
AcDb2dVertex
 10
-191.15093383
 20
38.76239044
 30
0.0
  0
VERTEX
  5
797
100
AcDbEntity
  8
0
100
AcDbVertex
100
AcDb2dVertex
 10
-191.08468542
 20
38.75062159
 30
0.0
  0
VERTEX
  5
798
100
AcDbEntity
  8
0
100
AcDbVertex
100
AcDb2dVertex
 10
-191.01503411
 20
38.73696540
 30
0.0
  0
VERTEX
  5
799
100
AcDbEntity
  8
0
100
AcDbVertex
100
AcDb2dVertex
 10
-190.93993915
 20
38.72094122
 30
0.0
  0
VERTEX
  5
79A
100
AcDbEntity
  8
0
100
AcDbVertex
100
AcDb2dVertex
 10
-190.86494874
 20
38.70371628
 30
0.0
  0
VERTEX
  5
79B
100
AcDbEntity
  8
0
100
AcDbVertex
100
AcDb2dVertex
 10
-190.83955365
 20
38.69762173
 30
0.0
  0
SEQEND
  5
79C
100
AcDbEntity
  8
0
  0
POLYLINE
  5
79D
100
AcDbEntity
  8
0
100
AcDb2dPolyline
 66
     1
  0
VERTEX
  5
79E
100
AcDbEntity
  8
0
100
AcDbVertex
100
AcDb2dVertex
 10
-191.67500000
 20
38.62707627
 30
0.0
  0
VERTEX
  5
79F
100
AcDbEntity
  8
0
100
AcDbVertex
100
AcDb2dVertex
 10
-191.64311785
 20
38.62755224
 30
0.0
  0
VERTEX
  5
7A0
100
AcDbEntity
  8
0
100
AcDbVertex
100
AcDb2dVertex
 10
-191.61353780
 20
38.62897345
 30
0.0
  0
VERTEX
  5
7A1
100
AcDbEntity
  8
0
100
AcDbVertex
100
AcDb2dVertex
 10
-191.58653044
 20
38.63132585
 30
0.0
  0
VERTEX
  5
7A2
100
AcDbEntity
  8
0
100
AcDbVertex
100
AcDb2dVertex
 10
-191.56237598
 20
38.63458635
 30
0.0
  0
VERTEX
  5
7A3
100
AcDbEntity
  8
0
100
AcDbVertex
100
AcDb2dVertex
 10
-191.54132979
 20
38.63872282
 30
0.0
  0
VERTEX
  5
7A4
100
AcDbEntity
  8
0
100
AcDbVertex
100
AcDb2dVertex
 10
-191.52361976
 20
38.64369417
 30
0.0
  0
VERTEX
  5
7A5
100
AcDbEntity
  8
0
100
AcDbVertex
100
AcDb2dVertex
 10
-191.50944345
 20
38.64945036
 30
0.0
  0
VERTEX
  5
7A6
100
AcDbEntity
  8
0
100
AcDbVertex
100
AcDb2dVertex
 10
-191.49896504
 20
38.65593264
 30
0.0
  0
VERTEX
  5
7A7
100
AcDbEntity
  8
0
100
AcDbVertex
100
AcDb2dVertex
 10
-191.49231225
 20
38.66307382
 30
0.0
  0
VERTEX
  5
7A8
100
AcDbEntity
  8
0
100
AcDbVertex
100
AcDb2dVertex
 10
-191.48957338
 20
38.67079873
 30
0.0
  0
VERTEX
  5
7A9
100
AcDbEntity
  8
0
100
AcDbVertex
100
AcDb2dVertex
 10
-191.49079469
 20
38.67902490
 30
0.0
  0
VERTEX
  5
7AA
100
AcDbEntity
  8
0
100
AcDbVertex
100
AcDb2dVertex
 10
-191.49597822
 20
38.68766340
 30
0.0
  0
VERTEX
  5
7AB
100
AcDbEntity
  8
0
100
AcDbVertex
100
AcDb2dVertex
 10
-191.50508040
 20
38.69661986
 30
0.0
  0
VERTEX
  5
7AC
100
AcDbEntity
  8
0
100
AcDbVertex
100
AcDb2dVertex
 10
-191.50631931
 20
38.69762174
 30
0.0
  0
SEQEND
  5
7AD
100
AcDbEntity
  8
0
  0
POLYLINE
  5
7AE
100
AcDbEntity
  8
0
100
AcDb2dPolyline
 66
     1
  0
VERTEX
  5
7AF
100
AcDbEntity
  8
0
100
AcDbVertex
100
AcDb2dVertex
 10
-192.13323434
 20
38.69762174
 30
0.0
  0
VERTEX
  5
7B0
100
AcDbEntity
  8
0
100
AcDbVertex
100
AcDb2dVertex
 10
-192.13034249
 20
38.69661986
 30
0.0
  0
VERTEX
  5
7B1
100
AcDbEntity
  8
0
100
AcDbVertex
100
AcDb2dVertex
 10
-192.10254093
 20
38.68766340
 30
0.0
  0
VERTEX
  5
7B2
100
AcDbEntity
  8
0
100
AcDbVertex
100
AcDb2dVertex
 10
-192.07217124
 20
38.67902490
 30
0.0
  0
VERTEX
  5
7B3
100
AcDbEntity
  8
0
100
AcDbVertex
100
AcDb2dVertex
 10
-192.03957323
 20
38.67079873
 30
0.0
  0
VERTEX
  5
7B4
100
AcDbEntity
  8
0
100
AcDbVertex
100
AcDb2dVertex
 10
-192.00510864
 20
38.66307382
 30
0.0
  0
VERTEX
  5
7B5
100
AcDbEntity
  8
0
100
AcDbVertex
100
AcDb2dVertex
 10
-191.96915575
 20
38.65593264
 30
0.0
  0
VERTEX
  5
7B6
100
AcDbEntity
  8
0
100
AcDbVertex
100
AcDb2dVertex
 10
-191.93210416
 20
38.64945036
 30
0.0
  0
VERTEX
  5
7B7
100
AcDbEntity
  8
0
100
AcDbVertex
100
AcDb2dVertex
 10
-191.88191476
 20
38.64197904
 30
0.0
  0
VERTEX
  5
7B8
100
AcDbEntity
  8
0
100
AcDbVertex
100
AcDb2dVertex
 10
-191.83140391
 20
38.63591813
 30
0.0
  0
VERTEX
  5
7B9
100
AcDbEntity
  8
0
100
AcDbVertex
100
AcDb2dVertex
 10
-191.78083700
 20
38.63132585
 30
0.0
  0
VERTEX
  5
7BA
100
AcDbEntity
  8
0
100
AcDbVertex
100
AcDb2dVertex
 10
-191.73257522
 20
38.62840921
 30
0.0
  0
VERTEX
  5
7BB
100
AcDbEntity
  8
0
100
AcDbVertex
100
AcDb2dVertex
 10
-191.68669401
 20
38.62713525
 30
0.0
  0
VERTEX
  5
7BC
100
AcDbEntity
  8
0
100
AcDbVertex
100
AcDb2dVertex
 10
-191.67500000
 20
38.62707627
 30
0.0
  0
SEQEND
  5
7BD
100
AcDbEntity
  8
0
  0
POLYLINE
  5
7BE
100
AcDbEntity
  8
0
100
AcDb2dPolyline
 66
     1
  0
VERTEX
  5
7BF
100
AcDbEntity
  8
0
100
AcDbVertex
100
AcDb2dVertex
 10
-193.46676563
 20
38.69762173
 30
0.0
  0
VERTEX
  5
7C0
100
AcDbEntity
  8
0
100
AcDbVertex
100
AcDb2dVertex
 10
-193.41080163
 20
38.71550422
 30
0.0
  0
VERTEX
  5
7C1
100
AcDbEntity
  8
0
100
AcDbVertex
100
AcDb2dVertex
 10
-193.35033981
 20
38.73168915
 30
0.0
  0
VERTEX
  5
7C2
100
AcDbEntity
  8
0
100
AcDbVertex
100
AcDb2dVertex
 10
-193.29693769
 20
38.74379147
 30
0.0
  0
VERTEX
  5
7C3
100
AcDbEntity
  8
0
100
AcDbVertex
100
AcDb2dVertex
 10
-193.22952975
 20
38.75660933
 30
0.0
  0
VERTEX
  5
7C4
100
AcDbEntity
  8
0
100
AcDbVertex
100
AcDb2dVertex
 10
-193.15903000
 20
38.76748450
 30
0.0
  0
VERTEX
  5
7C5
100
AcDbEntity
  8
0
100
AcDbVertex
100
AcDb2dVertex
 10
-193.08465404
 20
38.77649373
 30
0.0
  0
VERTEX
  5
7C6
100
AcDbEntity
  8
0
100
AcDbVertex
100
AcDb2dVertex
 10
-193.00960118
 20
38.78326929
 30
0.0
  0
VERTEX
  5
7C7
100
AcDbEntity
  8
0
100
AcDbVertex
100
AcDb2dVertex
 10
-192.93307880
 20
38.78795860
 30
0.0
  0
VERTEX
  5
7C8
100
AcDbEntity
  8
0
100
AcDbVertex
100
AcDb2dVertex
 10
-192.85403259
 20
38.79056865
 30
0.0
  0
VERTEX
  5
7C9
100
AcDbEntity
  8
0
100
AcDbVertex
100
AcDb2dVertex
 10
-192.77628560
 20
38.79098235
 30
0.0
  0
VERTEX
  5
7CA
100
AcDbEntity
  8
0
100
AcDbVertex
100
AcDb2dVertex
 10
-192.69871871
 20
38.78927673
 30
0.0
  0
VERTEX
  5
7CB
100
AcDbEntity
  8
0
100
AcDbVertex
100
AcDb2dVertex
 10
-192.62929275
 20
38.78592433
 30
0.0
  0
VERTEX
  5
7CC
100
AcDbEntity
  8
0
100
AcDbVertex
100
AcDb2dVertex
 10
-192.55364508
 20
38.78022955
 30
0.0
  0
VERTEX
  5
7CD
100
AcDbEntity
  8
0
100
AcDbVertex
100
AcDb2dVertex
 10
-192.47974477
 20
38.77247950
 30
0.0
  0
VERTEX
  5
7CE
100
AcDbEntity
  8
0
100
AcDbVertex
100
AcDb2dVertex
 10
-192.40599256
 20
38.76239044
 30
0.0
  0
VERTEX
  5
7CF
100
AcDbEntity
  8
0
100
AcDbVertex
100
AcDb2dVertex
 10
-192.33730977
 20
38.75062159
 30
0.0
  0
VERTEX
  5
7D0
100
AcDbEntity
  8
0
100
AcDbVertex
100
AcDb2dVertex
 10
-192.27193433
 20
38.73696540
 30
0.0
  0
VERTEX
  5
7D1
100
AcDbEntity
  8
0
100
AcDbVertex
100
AcDb2dVertex
 10
-192.20832541
 20
38.72094122
 30
0.0
  0
VERTEX
  5
7D2
100
AcDbEntity
  8
0
100
AcDbVertex
100
AcDb2dVertex
 10
-192.15121456
 20
38.70371628
 30
0.0
  0
VERTEX
  5
7D3
100
AcDbEntity
  8
0
100
AcDbVertex
100
AcDb2dVertex
 10
-192.13323437
 20
38.69762173
 30
0.0
  0
SEQEND
  5
7D4
100
AcDbEntity
  8
0
  0
POLYLINE
  5
7D5
100
AcDbEntity
  8
0
100
AcDb2dPolyline
 66
     1
  0
VERTEX
  5
7D6
100
AcDbEntity
  8
0
100
AcDbVertex
100
AcDb2dVertex
 10
-193.92500000
 20
38.62707627
 30
0.0
  0
VERTEX
  5
7D7
100
AcDbEntity
  8
0
100
AcDbVertex
100
AcDb2dVertex
 10
-193.89117309
 20
38.62755224
 30
0.0
  0
VERTEX
  5
7D8
100
AcDbEntity
  8
0
100
AcDbVertex
100
AcDb2dVertex
 10
-193.85578546
 20
38.62897345
 30
0.0
  0
VERTEX
  5
7D9
100
AcDbEntity
  8
0
100
AcDbVertex
100
AcDb2dVertex
 10
-193.81916300
 20
38.63132585
 30
0.0
  0
VERTEX
  5
7DA
100
AcDbEntity
  8
0
100
AcDbVertex
100
AcDb2dVertex
 10
-193.78167685
 20
38.63458635
 30
0.0
  0
VERTEX
  5
7DB
100
AcDbEntity
  8
0
100
AcDbVertex
100
AcDb2dVertex
 10
-193.74370907
 20
38.63872282
 30
0.0
  0
VERTEX
  5
7DC
100
AcDbEntity
  8
0
100
AcDbVertex
100
AcDb2dVertex
 10
-193.70565010
 20
38.64369417
 30
0.0
  0
VERTEX
  5
7DD
100
AcDbEntity
  8
0
100
AcDbVertex
100
AcDb2dVertex
 10
-193.66789584
 20
38.64945036
 30
0.0
  0
VERTEX
  5
7DE
100
AcDbEntity
  8
0
100
AcDbVertex
100
AcDb2dVertex
 10
-193.63084425
 20
38.65593264
 30
0.0
  0
VERTEX
  5
7DF
100
AcDbEntity
  8
0
100
AcDbVertex
100
AcDb2dVertex
 10
-193.59489136
 20
38.66307382
 30
0.0
  0
VERTEX
  5
7E0
100
AcDbEntity
  8
0
100
AcDbVertex
100
AcDb2dVertex
 10
-193.56042677
 20
38.67079873
 30
0.0
  0
VERTEX
  5
7E1
100
AcDbEntity
  8
0
100
AcDbVertex
100
AcDb2dVertex
 10
-193.52782876
 20
38.67902490
 30
0.0
  0
VERTEX
  5
7E2
100
AcDbEntity
  8
0
100
AcDbVertex
100
AcDb2dVertex
 10
-193.49745907
 20
38.68766340
 30
0.0
  0
VERTEX
  5
7E3
100
AcDbEntity
  8
0
100
AcDbVertex
100
AcDb2dVertex
 10
-193.46965751
 20
38.69661986
 30
0.0
  0
VERTEX
  5
7E4
100
AcDbEntity
  8
0
100
AcDbVertex
100
AcDb2dVertex
 10
-193.46676566
 20
38.69762174
 30
0.0
  0
SEQEND
  5
7E5
100
AcDbEntity
  8
0
  0
POLYLINE
  5
7E6
100
AcDbEntity
  8
0
100
AcDb2dPolyline
 66
     1
  0
VERTEX
  5
7E7
100
AcDbEntity
  8
0
100
AcDbVertex
100
AcDb2dVertex
 10
-194.09368069
 20
38.69762174
 30
0.0
  0
VERTEX
  5
7E8
100
AcDbEntity
  8
0
100
AcDbVertex
100
AcDb2dVertex
 10
-194.09491960
 20
38.69661986
 30
0.0
  0
VERTEX
  5
7E9
100
AcDbEntity
  8
0
100
AcDbVertex
100
AcDb2dVertex
 10
-194.10402178
 20
38.68766340
 30
0.0
  0
VERTEX
  5
7EA
100
AcDbEntity
  8
0
100
AcDbVertex
100
AcDb2dVertex
 10
-194.10920531
 20
38.67902490
 30
0.0
  0
VERTEX
  5
7EB
100
AcDbEntity
  8
0
100
AcDbVertex
100
AcDb2dVertex
 10
-194.11042662
 20
38.67079873
 30
0.0
  0
VERTEX
  5
7EC
100
AcDbEntity
  8
0
100
AcDbVertex
100
AcDb2dVertex
 10
-194.10768775
 20
38.66307382
 30
0.0
  0
VERTEX
  5
7ED
100
AcDbEntity
  8
0
100
AcDbVertex
100
AcDb2dVertex
 10
-194.10103496
 20
38.65593264
 30
0.0
  0
VERTEX
  5
7EE
100
AcDbEntity
  8
0
100
AcDbVertex
100
AcDb2dVertex
 10
-194.09055655
 20
38.64945036
 30
0.0
  0
VERTEX
  5
7EF
100
AcDbEntity
  8
0
100
AcDbVertex
100
AcDb2dVertex
 10
-194.07638024
 20
38.64369417
 30
0.0
  0
VERTEX
  5
7F0
100
AcDbEntity
  8
0
100
AcDbVertex
100
AcDb2dVertex
 10
-194.05867021
 20
38.63872282
 30
0.0
  0
VERTEX
  5
7F1
100
AcDbEntity
  8
0
100
AcDbVertex
100
AcDb2dVertex
 10
-194.03762402
 20
38.63458635
 30
0.0
  0
VERTEX
  5
7F2
100
AcDbEntity
  8
0
100
AcDbVertex
100
AcDb2dVertex
 10
-194.01346956
 20
38.63132585
 30
0.0
  0
VERTEX
  5
7F3
100
AcDbEntity
  8
0
100
AcDbVertex
100
AcDb2dVertex
 10
-193.98646220
 20
38.62897345
 30
0.0
  0
VERTEX
  5
7F4
100
AcDbEntity
  8
0
100
AcDbVertex
100
AcDb2dVertex
 10
-193.95688215
 20
38.62755224
 30
0.0
  0
VERTEX
  5
7F5
100
AcDbEntity
  8
0
100
AcDbVertex
100
AcDb2dVertex
 10
-193.92500000
 20
38.62707627
 30
0.0
  0
SEQEND
  5
7F6
100
AcDbEntity
  8
0
  0
POLYLINE
  5
7F7
100
AcDbEntity
  8
0
100
AcDb2dPolyline
 66
     1
  0
VERTEX
  5
7F8
100
AcDbEntity
  8
0
100
AcDbVertex
100
AcDb2dVertex
 10
-194.76044635
 20
38.69762173
 30
0.0
  0
VERTEX
  5
7F9
100
AcDbEntity
  8
0
100
AcDbVertex
100
AcDb2dVertex
 10
-194.68429256
 20
38.71550422
 30
0.0
  0
VERTEX
  5
7FA
100
AcDbEntity
  8
0
100
AcDbVertex
100
AcDb2dVertex
 10
-194.61036699
 20
38.73168915
 30
0.0
  0
VERTEX
  5
7FB
100
AcDbEntity
  8
0
100
AcDbVertex
100
AcDb2dVertex
 10
-194.55093367
 20
38.74379147
 30
0.0
  0
VERTEX
  5
7FC
100
AcDbEntity
  8
0
100
AcDbVertex
100
AcDb2dVertex
 10
-194.48250674
 20
38.75660933
 30
0.0
  0
VERTEX
  5
7FD
100
AcDbEntity
  8
0
100
AcDbVertex
100
AcDb2dVertex
 10
-194.41775179
 20
38.76748450
 30
0.0
  0
VERTEX
  5
7FE
100
AcDbEntity
  8
0
100
AcDbVertex
100
AcDb2dVertex
 10
-194.35609006
 20
38.77649373
 30
0.0
  0
VERTEX
  5
7FF
100
AcDbEntity
  8
0
100
AcDbVertex
100
AcDb2dVertex
 10
-194.30013914
 20
38.78326929
 30
0.0
  0
VERTEX
  5
800
100
AcDbEntity
  8
0
100
AcDbVertex
100
AcDb2dVertex
 10
-194.24911716
 20
38.78795860
 30
0.0
  0
VERTEX
  5
801
100
AcDbEntity
  8
0
100
AcDbVertex
100
AcDb2dVertex
 10
-194.20248812
 20
38.79056865
 30
0.0
  0
VERTEX
  5
802
100
AcDbEntity
  8
0
100
AcDbVertex
100
AcDb2dVertex
 10
-194.16248813
 20
38.79098235
 30
0.0
  0
VERTEX
  5
803
100
AcDbEntity
  8
0
100
AcDbVertex
100
AcDb2dVertex
 10
-194.12834876
 20
38.78927673
 30
0.0
  0
VERTEX
  5
804
100
AcDbEntity
  8
0
100
AcDbVertex
100
AcDb2dVertex
 10
-194.10276083
 20
38.78592433
 30
0.0
  0
VERTEX
  5
805
100
AcDbEntity
  8
0
100
AcDbVertex
100
AcDb2dVertex
 10
-194.08042891
 20
38.78022955
 30
0.0
  0
VERTEX
  5
806
100
AcDbEntity
  8
0
100
AcDbVertex
100
AcDb2dVertex
 10
-194.06454364
 20
38.77247950
 30
0.0
  0
VERTEX
  5
807
100
AcDbEntity
  8
0
100
AcDbVertex
100
AcDb2dVertex
 10
-194.05505872
 20
38.76239044
 30
0.0
  0
VERTEX
  5
808
100
AcDbEntity
  8
0
100
AcDbVertex
100
AcDb2dVertex
 10
-194.05262435
 20
38.75062159
 30
0.0
  0
VERTEX
  5
809
100
AcDbEntity
  8
0
100
AcDbVertex
100
AcDb2dVertex
 10
-194.05690023
 20
38.73696540
 30
0.0
  0
VERTEX
  5
80A
100
AcDbEntity
  8
0
100
AcDbVertex
100
AcDb2dVertex
 10
-194.06838626
 20
38.72094122
 30
0.0
  0
VERTEX
  5
80B
100
AcDbEntity
  8
0
100
AcDbVertex
100
AcDb2dVertex
 10
-194.08626582
 20
38.70371628
 30
0.0
  0
VERTEX
  5
80C
100
AcDbEntity
  8
0
100
AcDbVertex
100
AcDb2dVertex
 10
-194.09368072
 20
38.69762173
 30
0.0
  0
SEQEND
  5
80D
100
AcDbEntity
  8
0
  0
POLYLINE
  5
80E
100
AcDbEntity
  8
0
100
AcDb2dPolyline
 66
     1
  0
VERTEX
  5
80F
100
AcDbEntity
  8
0
100
AcDbVertex
100
AcDb2dVertex
 10
-195.05000000
 20
38.62707627
 30
0.0
  0
VERTEX
  5
810
100
AcDbEntity
  8
0
100
AcDbVertex
100
AcDb2dVertex
 10
-195.04805524
 20
38.62755224
 30
0.0
  0
VERTEX
  5
811
100
AcDbEntity
  8
0
100
AcDbVertex
100
AcDb2dVertex
 10
-195.04224766
 20
38.62897345
 30
0.0
  0
VERTEX
  5
812
100
AcDbEntity
  8
0
100
AcDbVertex
100
AcDb2dVertex
 10
-195.03263256
 20
38.63132585
 30
0.0
  0
VERTEX
  5
813
100
AcDbEntity
  8
0
100
AcDbVertex
100
AcDb2dVertex
 10
-195.01930087
 20
38.63458635
 30
0.0
  0
VERTEX
  5
814
100
AcDbEntity
  8
0
100
AcDbVertex
100
AcDb2dVertex
 10
-195.00237928
 20
38.63872282
 30
0.0
  0
VERTEX
  5
815
100
AcDbEntity
  8
0
100
AcDbVertex
100
AcDb2dVertex
 10
-194.98203034
 20
38.64369417
 30
0.0
  0
VERTEX
  5
816
100
AcDbEntity
  8
0
100
AcDbVertex
100
AcDb2dVertex
 10
-194.95845239
 20
38.64945036
 30
0.0
  0
VERTEX
  5
817
100
AcDbEntity
  8
0
100
AcDbVertex
100
AcDb2dVertex
 10
-194.93187922
 20
38.65593264
 30
0.0
  0
VERTEX
  5
818
100
AcDbEntity
  8
0
100
AcDbVertex
100
AcDb2dVertex
 10
-194.90257911
 20
38.66307382
 30
0.0
  0
VERTEX
  5
819
100
AcDbEntity
  8
0
100
AcDbVertex
100
AcDb2dVertex
 10
-194.87085339
 20
38.67079873
 30
0.0
  0
VERTEX
  5
81A
100
AcDbEntity
  8
0
100
AcDbVertex
100
AcDb2dVertex
 10
-194.83703408
 20
38.67902490
 30
0.0
  0
VERTEX
  5
81B
100
AcDbEntity
  8
0
100
AcDbVertex
100
AcDb2dVertex
 10
-194.80148085
 20
38.68766340
 30
0.0
  0
VERTEX
  5
81C
100
AcDbEntity
  8
0
100
AcDbVertex
100
AcDb2dVertex
 10
-194.76457710
 20
38.69661986
 30
0.0
  0
VERTEX
  5
81D
100
AcDbEntity
  8
0
100
AcDbVertex
100
AcDb2dVertex
 10
-194.76044634
 20
38.69762174
 30
0.0
  0
SEQEND
  5
81E
100
AcDbEntity
  8
0
  0
LINE
  5
81F
100
AcDbEntity
  8
0
100
AcDbLine
 10
-188.05000000
 20
35.25000000
 30
0.0
 11
-197.55000000
 21
35.25000000
 31
0.0
  0
LINE
  5
820
100
AcDbEntity
  8
0
100
AcDbLine
 10
-190.40000000
 20
35.25000000
 30
0.0
 11
-195.20000000
 21
35.25000000
 31
0.0
  0
LINE
  5
821
100
AcDbEntity
  8
0
100
AcDbLine
 10
-194.59000000
 20
35.25000000
 30
0.0
 11
-191.01000000
 21
35.25000000
 31
0.0
  0
LINE
  5
822
100
AcDbEntity
  8
0
100
AcDbLine
 10
-191.01000000
 20
20.55000000
 30
0.0
 11
-194.59000000
 21
20.55000000
 31
0.0
  0
LINE
  5
823
100
AcDbEntity
  8
0
100
AcDbLine
 10
-194.76044635
 20
36.92000000
 30
0.0
 11
-194.76044635
 21
38.69762173
 31
0.0
  0
LINE
  5
824
100
AcDbEntity
  8
0
100
AcDbLine
 10
-194.76044635
 20
36.92000000
 30
0.0
 11
-194.76044635
 21
38.69762173
 31
0.0
  0
POLYLINE
  5
825
100
AcDbEntity
  8
0
100
AcDb2dPolyline
 66
     1
  0
VERTEX
  5
826
100
AcDbEntity
  8
0
100
AcDbVertex
100
AcDb2dVertex
 10
-194.76044635
 20
36.92000000
 30
0.0
  0
VERTEX
  5
827
100
AcDbEntity
  8
0
100
AcDbVertex
100
AcDb2dVertex
 10
-195.05000000
 20
36.92000000
 30
0.0
  0
VERTEX
  5
828
100
AcDbEntity
  8
0
100
AcDbVertex
100
AcDb2dVertex
 10
-194.76044635
 20
36.92000000
 30
0.0
  0
VERTEX
  5
829
100
AcDbEntity
  8
0
100
AcDbVertex
100
AcDb2dVertex
 10
-194.05256181
 20
36.92000000
 30
0.0
  0
VERTEX
  5
82A
100
AcDbEntity
  8
0
100
AcDbVertex
100
AcDb2dVertex
 10
-194.09368070
 20
36.92000000
 30
0.0
  0
VERTEX
  5
82B
100
AcDbEntity
  8
0
100
AcDbVertex
100
AcDb2dVertex
 10
-194.09368072
 20
38.69762173
 30
0.0
  0
SEQEND
  5
82C
100
AcDbEntity
  8
0
  0
POLYLINE
  5
82D
100
AcDbEntity
  8
0
100
AcDb2dPolyline
 66
     1
  0
VERTEX
  5
82E
100
AcDbEntity
  8
0
100
AcDbVertex
100
AcDb2dVertex
 10
-194.09368070
 20
36.92000000
 30
0.0
  0
VERTEX
  5
82F
100
AcDbEntity
  8
0
100
AcDbVertex
100
AcDb2dVertex
 10
-194.11050000
 20
36.92000000
 30
0.0
  0
VERTEX
  5
830
100
AcDbEntity
  8
0
100
AcDbVertex
100
AcDb2dVertex
 10
-193.46676565
 20
36.92000000
 30
0.0
  0
VERTEX
  5
831
100
AcDbEntity
  8
0
100
AcDbVertex
100
AcDb2dVertex
 10
-192.13323435
 20
36.92000000
 30
0.0
  0
VERTEX
  5
832
100
AcDbEntity
  8
0
100
AcDbVertex
100
AcDb2dVertex
 10
-191.48950000
 20
36.92000000
 30
0.0
  0
VERTEX
  5
833
100
AcDbEntity
  8
0
100
AcDbVertex
100
AcDb2dVertex
 10
-191.50631930
 20
36.92000000
 30
0.0
  0
VERTEX
  5
834
100
AcDbEntity
  8
0
100
AcDbVertex
100
AcDb2dVertex
 10
-191.54743819
 20
36.92000000
 30
0.0
  0
VERTEX
  5
835
100
AcDbEntity
  8
0
100
AcDbVertex
100
AcDb2dVertex
 10
-190.83955365
 20
36.92000000
 30
0.0
  0
VERTEX
  5
836
100
AcDbEntity
  8
0
100
AcDbVertex
100
AcDb2dVertex
 10
-190.55000000
 20
36.92000000
 30
0.0
  0
VERTEX
  5
837
100
AcDbEntity
  8
0
100
AcDbVertex
100
AcDb2dVertex
 10
-190.83955365
 20
36.92000000
 30
0.0
  0
VERTEX
  5
838
100
AcDbEntity
  8
0
100
AcDbVertex
100
AcDb2dVertex
 10
-191.54743819
 20
36.92000000
 30
0.0
  0
VERTEX
  5
839
100
AcDbEntity
  8
0
100
AcDbVertex
100
AcDb2dVertex
 10
-191.50631930
 20
36.92000000
 30
0.0
  0
VERTEX
  5
83A
100
AcDbEntity
  8
0
100
AcDbVertex
100
AcDb2dVertex
 10
-191.48950000
 20
36.92000000
 30
0.0
  0
VERTEX
  5
83B
100
AcDbEntity
  8
0
100
AcDbVertex
100
AcDb2dVertex
 10
-192.13323435
 20
36.92000000
 30
0.0
  0
VERTEX
  5
83C
100
AcDbEntity
  8
0
100
AcDbVertex
100
AcDb2dVertex
 10
-193.46676565
 20
36.92000000
 30
0.0
  0
VERTEX
  5
83D
100
AcDbEntity
  8
0
100
AcDbVertex
100
AcDb2dVertex
 10
-194.11050000
 20
36.92000000
 30
0.0
  0
VERTEX
  5
83E
100
AcDbEntity
  8
0
100
AcDbVertex
100
AcDb2dVertex
 10
-194.09368070
 20
36.92000000
 30
0.0
  0
VERTEX
  5
83F
100
AcDbEntity
  8
0
100
AcDbVertex
100
AcDb2dVertex
 10
-194.05256181
 20
36.92000000
 30
0.0
  0
VERTEX
  5
840
100
AcDbEntity
  8
0
100
AcDbVertex
100
AcDb2dVertex
 10
-194.76044635
 20
36.92000000
 30
0.0
  0
SEQEND
  5
841
100
AcDbEntity
  8
0
  0
LINE
  5
842
100
AcDbEntity
  8
0
100
AcDbLine
 10
-193.46676565
 20
36.92000000
 30
0.0
 11
-193.46676566
 21
38.69762174
 31
0.0
  0
LINE
  5
843
100
AcDbEntity
  8
0
100
AcDbLine
 10
-192.13323435
 20
36.92000000
 30
0.0
 11
-192.13323437
 21
38.69762173
 31
0.0
  0
LINE
  5
844
100
AcDbEntity
  8
0
100
AcDbLine
 10
-191.50631930
 20
36.92000000
 30
0.0
 11
-191.50631931
 21
38.69762174
 31
0.0
  0
LINE
  5
845
100
AcDbEntity
  8
0
100
AcDbLine
 10
-190.83955365
 20
36.92000000
 30
0.0
 11
-190.83955365
 21
38.69762173
 31
0.0
  0
LINE
  5
846
100
AcDbEntity
  8
0
100
AcDbLine
 10
-190.83955365
 20
36.92000000
 30
0.0
 11
-190.83955366
 21
38.69762174
 31
0.0
  0
LINE
  5
847
100
AcDbEntity
  8
0
100
AcDbLine
 10
-191.50631930
 20
36.92000000
 30
0.0
 11
-191.50631928
 21
38.69762173
 31
0.0
  0
LINE
  5
848
100
AcDbEntity
  8
0
100
AcDbLine
 10
-192.13323435
 20
36.92000000
 30
0.0
 11
-192.13323434
 21
38.69762174
 31
0.0
  0
LINE
  5
849
100
AcDbEntity
  8
0
100
AcDbLine
 10
-193.46676565
 20
36.92000000
 30
0.0
 11
-193.46676563
 21
38.69762173
 31
0.0
  0
LINE
  5
84A
100
AcDbEntity
  8
0
100
AcDbLine
 10
-194.09368070
 20
36.92000000
 30
0.0
 11
-194.09368069
 21
38.69762174
 31
0.0
  0
ENDBLK
  5
84B
100
AcDbEntity
  8
0
100
AcDbBlockEnd
  0
BLOCK
  5
84C
100
AcDbEntity
  8
0
100
AcDbBlockBegin
  2
Teil_00048
 70
    64
 10
0.0
 20
0.0
 30
0.0
  3
Teil_00048
  0
INSERT
  5
84D
100
AcDbEntity
  8
0
100
AcDbBlockReference
  2
_Teil_00049
 10
-190.40000000
 20
35.25000000
 30
0.0
  0
ENDBLK
  5
84E
100
AcDbEntity
  8
0
100
AcDbBlockEnd
  0
BLOCK
  5
84F
100
AcDbEntity
  8
0
100
AcDbBlockBegin
  2
_Teil_00049
 70
    64
 10
-190.40000000
 20
35.25000000
 30
0.0
  3
_Teil_00049
  0
LINE
  5
850
100
AcDbEntity
  8
0
100
AcDbLine
 10
-190.40000000
 20
35.25000000
 30
0.0
 11
-190.40000000
 21
20.55000000
 31
0.0
  0
POLYLINE
  5
851
100
AcDbEntity
  8
0
100
AcDb2dPolyline
 66
     1
  0
VERTEX
  5
852
100
AcDbEntity
  8
0
100
AcDbVertex
100
AcDb2dVertex
 10
-195.20000000
 20
35.25000000
 30
0.0
  0
VERTEX
  5
853
100
AcDbEntity
  8
0
100
AcDbVertex
100
AcDb2dVertex
 10
-195.20000000
 20
20.55000000
 30
0.0
  0
VERTEX
  5
854
100
AcDbEntity
  8
0
100
AcDbVertex
100
AcDb2dVertex
 10
-192.80000000
 20
16.25000000
 30
0.0
  0
SEQEND
  5
855
100
AcDbEntity
  8
0
  0
LINE
  5
856
100
AcDbEntity
  8
0
100
AcDbLine
 10
-190.40000000
 20
20.55000000
 30
0.0
 11
-192.80000000
 21
16.25000000
 31
0.0
  0
LINE
  5
857
100
AcDbEntity
  8
LE_RED
100
AcDbLine
 10
-191.01000000
 20
35.25000000
 30
0.0
 11
-191.01000000
 21
20.55000000
 31
0.0
  0
POLYLINE
  5
858
100
AcDbEntity
  8
LE_RED
100
AcDb2dPolyline
 66
     1
  0
VERTEX
  5
859
100
AcDbEntity
  8
LE_RED
100
AcDbVertex
100
AcDb2dVertex
 10
-194.59000000
 20
35.25000000
 30
0.0
  0
VERTEX
  5
85A
100
AcDbEntity
  8
LE_RED
100
AcDbVertex
100
AcDb2dVertex
 10
-194.59000000
 20
20.55000000
 30
0.0
  0
VERTEX
  5
85B
100
AcDbEntity
  8
LE_RED
100
AcDbVertex
100
AcDb2dVertex
 10
-192.80000000
 20
16.25500000
 30
0.0
  0
SEQEND
  5
85C
100
AcDbEntity
  8
LE_RED
  0
LINE
  5
85D
100
AcDbEntity
  8
LE_RED
100
AcDbLine
 10
-191.01000000
 20
20.55000000
 30
0.0
 11
-192.80000000
 21
16.25500000
 31
0.0
  0
LINE
  5
85E
100
AcDbEntity
  8
0
100
AcDbLine
 10
-190.40000000
 20
35.25000000
 30
0.0
 11
-195.20000000
 21
35.25000000
 31
0.0
  0
LINE
  5
85F
100
AcDbEntity
  8
0
100
AcDbLine
 10
-191.01000000
 20
35.25000000
 30
0.0
 11
-194.59000000
 21
35.25000000
 31
0.0
  0
LINE
  5
860
100
AcDbEntity
  8
0
100
AcDbLine
 10
-190.40000000
 20
20.55000000
 30
0.0
 11
-195.20000000
 21
20.55000000
 31
0.0
  0
LINE
  5
861
100
AcDbEntity
  8
0
100
AcDbLine
 10
-191.01000000
 20
20.55000000
 30
0.0
 11
-194.59000000
 21
20.55000000
 31
0.0
  0
ENDBLK
  5
862
100
AcDbEntity
  8
0
100
AcDbBlockEnd
  0
BLOCK
  5
863
100
AcDbEntity
  8
0
100
AcDbBlockBegin
  2
FIG2D02_00052
 70
    64
 10
100.88443213
 20
-96.41570366
 30
0.0
  3
FIG2D02_00052
  0
TEXT
  5
864
100
AcDbEntity
  8
TXT_ALL
100
AcDbText
 10
100.88443213
 20
-99.74970377
 30
0.0
 40
3.33400011
  1
Trägerprofilgummi 4-7
  7
Arial
 41
1.000
 50
0.0
 51
0.0
 72
     0
 11
100.88443213
 21
-96.41570366
 31
0.0
100
AcDbText
 73
     3
  0
TEXT
  5
865
100
AcDbEntity
  8
TXT_ALL
100
AcDbText
 10
-251.04291038
 20
204.90936500
 30
0.0
 40
3.33400011
  1
Alternative: Anfangsprofil mit Aufkantung
  7
Arial
 41
1.000
 50
0.0
 51
0.0
 72
     0
 11
-251.04291038
 21
208.24336511
 31
0.0
100
AcDbText
 73
     3
  0
TEXT
  5
866
100
AcDbEntity
  8
TXT_ALL
100
AcDbText
 10
130.37087906
 20
204.20005549
 30
0.0
 40
3.33400011
  1
Alternative: Endprofil mit Aufkantung
  7
Arial
 41
1.000
 50
0.0
 51
0.0
 72
     0
 11
130.37087906
 21
207.53405560
 31
0.0
100
AcDbText
 73
     3
  0
TEXT
  5
867
100
AcDbEntity
  8
TXT_ALL
100
AcDbText
 10
37.23715290
 20
-99.77531653
 30
0.0
 40
3.33400011
  1
Trägerprofilgummi 8-11
  7
Arial
 41
1.000
 50
0.0
 51
0.0
 72
     0
 11
37.23715290
 21
-96.44131642
 31
0.0
100
AcDbText
 73
     3
  0
TEXT
  5
868
100
AcDbEntity
  8
TXT_ALL
100
AcDbText
 10
-14.62872240
 20
-100.39646030
 30
0.0
 40
3.33400011
  1
Trägerprofil 20
  7
Arial
 41
1.000
 50
0.0
 51
0.0
 72
     0
 11
-14.62872240
 21
-97.06246019
 31
0.0
100
AcDbText
 73
     3
  0
TEXT
  5
869
100
AcDbEntity
  8
TXT_ALL
100
AcDbText
 10
-96.81428215
 20
-115.74950308
 30
0.0
 40
3.33400011
  1
Trägerprofil 35
  7
Arial
 41
1.000
 50
0.0
 51
0.0
 72
     0
 11
-96.81428215
 21
-112.41550297
 31
0.0
100
AcDbText
 73
     3
  0
TEXT
  5
86A
100
AcDbEntity
  8
TXT_ALL
100
AcDbText
 10
-176.91643266
 20
-130.14437297
 30
0.0
 40
3.33400011
  1
Trägerprofil 50
  7
Arial
 41
1.000
 50
0.0
 51
0.0
 72
     0
 11
-176.91643266
 21
-126.81037286
 31
0.0
100
AcDbText
 73
     3
  0
TEXT
  5
86B
100
AcDbEntity
  8
TXT_ALL
100
AcDbText
 10
-331.28043658
 20
51.72353471
 30
0.0
 40
3.33400011
  1
Sockelleistenhalter
  7
Arial
 41
1.000
 50
0.0
 51
0.0
 72
     0
 11
-331.28043658
 21
55.05753482
 31
0.0
100
AcDbText
 73
     3
  0
TEXT
  5
86C
100
AcDbEntity
  8
TXT_ALL
100
AcDbText
 10
-282.21986745
 20
74.64351335
 30
0.0
 40
3.33400011
  1
Sockelleiste
  7
Arial
 41
1.000
 50
0.0
 51
0.0
 72
     0
 11
-282.21986745
 21
77.97751346
 31
0.0
100
AcDbText
 73
     3
  0
TEXT
  5
86D
100
AcDbEntity
  8
TXT_ALL
100
AcDbText
 10
-241.66306293
 20
25.79089755
 30
0.0
 40
3.33400011
  1
Anfangsprofil
  7
Arial
 41
1.000
 50
0.0
 51
0.0
 72
     0
 11
-241.66306293
 21
29.12489766
 31
0.0
100
AcDbText
 73
     3
  0
TEXT
  5
86E
100
AcDbEntity
  8
TXT_ALL
100
AcDbText
 10
-214.59640536
 20
47.74671497
 30
0.0
 40
3.33400011
  1
Trägerprofilschraube
  7
Arial
 41
1.000
 50
0.0
 51
0.0
 72
     0
 11
-214.59640536
 21
51.08071508
 31
0.0
100
AcDbText
 73
     3
  0
TEXT
  5
86F
100
AcDbEntity
  8
TXT_ALL
100
AcDbText
 10
-19.50701953
 20
30.00141074
 30
0.0
 40
3.33400011
  1
balkoFLOOR 333
  7
Arial
 41
1.000
 50
0.0
 51
0.0
 72
     0
 11
-19.50701953
 21
33.33541085
 31
0.0
100
AcDbText
 73
     3
  0
TEXT
  5
870
100
AcDbEntity
  8
TXT_ALL
100
AcDbText
 10
166.24442106
 20
58.11484262
 30
0.0
 40
3.33400011
  1
Endprofil
  7
Arial
 41
1.000
 50
0.0
 51
0.0
 72
     0
 11
166.24442106
 21
61.44884273
 31
0.0
100
AcDbText
 73
     3
  0
TEXT
  5
871
100
AcDbEntity
  8
TXT_ALL
100
AcDbText
 10
248.54805220
 20
25.37895366
 30
0.0
 40
3.33400011
  1
Ausgleichsprofil
  7
Arial
 41
1.000
 50
0.0
 51
0.0
 72
     0
 11
248.54805220
 21
28.71295377
 31
0.0
100
AcDbText
 73
     3
  0
TEXT
  5
872
100
AcDbEntity
  8
TXT_ALL
100
AcDbText
 10
312.26439101
 20
27.78413189
 30
0.0
 40
3.33400011
  1
Antrittskante
  7
Arial
 41
1.000
 50
0.0
 51
0.0
 72
     0
 11
312.26439101
 21
31.11813200
 31
0.0
100
AcDbText
 73
     3
  0
TEXT
  5
873
100
AcDbEntity
  8
TXT_ALL
100
AcDbText
 10
386.56386212
 20
23.34795294
 30
0.0
 40
3.33400011
  1
Stirnleistenhalter
  7
Arial
 41
1.000
 50
0.0
 51
0.0
 72
     0
 11
386.56386212
 21
26.68195305
 31
0.0
100
AcDbText
 73
     3
  0
TEXT
  5
874
100
AcDbEntity
  8
TXT_ALL
100
AcDbText
 10
435.63332684
 20
55.71343744
 30
0.0
 40
3.33400011
  1
Stirnleiste
  7
Arial
 41
1.000
 50
0.0
 51
0.0
 72
     0
 11
435.63332684
 21
59.04743755
 31
0.0
100
AcDbText
 73
     3
  0
ENDBLK
  5
875
100
AcDbEntity
  8
0
100
AcDbBlockEnd
  0
ENDSEC
  0
SECTION
  2
ENTITIES
  0
INSERT
  5
876
100
AcDbEntity
  8
0
100
AcDbBlockReference
  2
ZBL2D01_00001
 10
0.0
 20
0.0
 30
0.0
  0
INSERT
  5
877
100
AcDbEntity
  8
0
100
AcDbBlockReference
  2
ANS3D02_00010
 10
0.0
 20
0.0
 30
0.0
  0
ENDSEC
  0
SECTION
  2
OBJECTS
  0
DICTIONARY
  5
C
330
0
100
AcDbDictionary
281
     1
  3
ACAD_GROUP
350
D
  3
ACAD_LAYOUT
350
19
  3
ACAD_MLINESTYLE
350
16
  0
DICTIONARY
  5
115
330
1E
100
AcDbDictionary
280
     1
281
     1
  3
ACAD_INDEX
360
116
  0
DICTIONARY
  5
D
100
AcDbDictionary
281
     1
  0
DICTIONARY
  5
19
100
AcDbDictionary
281
     1
  3
Layout1
350
1D
  3
Model
350
21
  0
DICTIONARY
  5
16
100
AcDbDictionary
281
     1
  3
Standard
350
17
  0
DICTIONARY
  5
116
100
AcDbDictionary
281
     1
  3
*A1
350
117
  0
LAYOUT
  5
1D
100
AcDbPlotSettings
  1

  2
C:\Programme\MDT\plotters\DWF Classic.pc3
  4

  6

 40
0.0
 41
0.0
 42
0.0
 43
0.0
 44
0.0
 45
0.0
 46
0.0
 47
0.0
 48
0.0
 49
0.0
140
0.0
141
0.0
142
1.0
143
1.0
 70
   688
 72
     0
 73
     0
 74
     5
  7

 75
    16
147
1.0
148
0.0
149
0.0
100
AcDbLayout
  1
Layout1
 70
     1
 71
     1
 10
0.0
 20
0.0
 11
12.0
 21
9.0
 12
0.0
 22
0.0
 32
0.0
 14
1.000000000000000E+20
 24
1.000000000000000E+20
 34
1.000000000000000E+20
 15
-1.000000000000000E+20
 25
-1.000000000000000E+20
 35
-1.000000000000000E+20
146
0.0
 13
0.0
 23
0.0
 33
0.0
 16
1.0
 26
0.0
 36
0.0
 17
0.0
 27
1.0
 37
0.0
 76
     0
330
1A
  0
LAYOUT
  5
21
100
AcDbPlotSettings
  1

  2
C:\Programme\MDT\plotters\DWF Classic.pc3
  4

  6

 40
0.0
 41
0.0
 42
0.0
 43
0.0
 44
0.0
 45
0.0
 46
0.0
 47
0.0
 48
0.0
 49
0.0
140
0.0
141
0.0
142
1.0
143
1.0
 70
  1712
 72
     0
 73
     0
 74
     0
  7

 75
     0
147
1.0
148
0.0
149
0.0
100
AcDbLayout
  1
Model
 70
     1
 71
     0
 10
0.0
 20
0.0
 11
12.0
 21
9.0
 12
0.0
 22
0.0
 32
0.0
 14
0.0
 24
0.0
 34
0.0
 15
0.0
 25
0.0
 35
0.0
146
0.0
 13
0.0
 23
0.0
 33
0.0
 16
1.0
 26
0.0
 36
0.0
 17
0.0
 27
1.0
 37
0.0
 76
     0
330
1E
  0
MLINESTYLE
  5
17
100
AcDbMlineStyle
  2
STANDARD
 70
     0
  3

 62
   256
 51
90.0
 52
90.0
 71
     2
 49
0.5
 62
   256
  6
BYLAYER
 49
-0.5
 62
   256
  6
BYLAYER
  0
ACDBPLACEHOLDER
  5
F
  0
XRECORD
  5
129
100
AcDbXrecord
280
     1
 90
        0
  0
XRECORD
  5
12A
100
AcDbXrecord
280
     1
  1
{46C4153B-0B27-49FA-99B6-AF3E057D65BC}
  0
XRECORD
  5
122
100
AcDbXrecord
280
     1
  1

  0
XRECORD
  5
128
100
AcDbXrecord
280
     1
 90
        0
  0
XRECORD
  5
124
100
AcDbXrecord
280
     1
340
19
  0
XRECORD
  5
127
100
AcDbXrecord
280
     1
 90
    10781
  0
XRECORD
  5
125
100
AcDbXrecord
280
     1
340
18
  0
XRECORD
  5
126
100
AcDbXrecord
280
     1
340
E
  0
XRECORD
  5
12C
100
AcDbXrecord
280
     1
 40
0.0
  0
XRECORD
  5
12F
100
AcDbXrecord
280
     1
340
0
  0
XRECORD
  5
135
100
AcDbXrecord
280
     1
 10
0.0
 20
0.0
 30
0.0
  0
XRECORD
  5
131
100
AcDbXrecord
280
     1
 10
0.0
 20
0.0
 30
0.0
  0
XRECORD
  5
134
100
AcDbXrecord
280
     1
 10
0.0
 20
0.0
 30
0.0
  0
XRECORD
  5
132
100
AcDbXrecord
280
     1
 10
0.0
 20
0.0
 30
0.0
  0
XRECORD
  5
133
100
AcDbXrecord
280
     1
 10
0.0
 20
0.0
 30
0.0
  0
XRECORD
  5
130
100
AcDbXrecord
280
     1
 10
0.0
 20
0.0
 30
0.0
  0
XRECORD
  5
12D
100
AcDbXrecord
280
     1
340
0
  0
XRECORD
  5
12E
100
AcDbXrecord
280
     1
 70
     0
  0
XRECORD
  5
123
100
AcDbXrecord
280
     1
  1

  0
XRECORD
  5
120
100
AcDbXrecord
280
     1
 90
        1
  0
XRECORD
  5
121
100
AcDbXrecord
280
     1
 90
       70
  0
XRECORD
  5
138
100
AcDbXrecord
280
     1
340
0
  0
XRECORD
  5
13E
100
AcDbXrecord
280
     1
 10
0.0
 20
0.0
 30
0.0
  0
XRECORD
  5
13A
100
AcDbXrecord
280
     1
 10
0.0
 20
0.0
 30
0.0
  0
XRECORD
  5
13D
100
AcDbXrecord
280
     1
 10
0.0
 20
0.0
 30
0.0
  0
XRECORD
  5
13B
100
AcDbXrecord
280
     1
 10
0.0
 20
0.0
 30
0.0
  0
XRECORD
  5
13C
100
AcDbXrecord
280
     1
 10
0.0
 20
0.0
 30
0.0
  0
XRECORD
  5
139
100
AcDbXrecord
280
     1
 10
0.0
 20
0.0
 30
0.0
  0
XRECORD
  5
136
100
AcDbXrecord
280
     1
340
0
  0
XRECORD
  5
137
100
AcDbXrecord
280
     1
 70
     0
  0
XRECORD
  5
12B
100
AcDbXrecord
280
     1
  1
{09700D79-BD6A-4B2C-8A65-8ED4ED61BA28}
  0
DICTIONARYVAR
  5
11D
100
DictionaryVariables
280
     0
  1
1
  0
ENDSEC
  0
EOF
